Oops, an error
Loading. Please wait.

Greyson Tab

version 1
version 1

Whole song

Interactive

3,664 views 1 this week
no commentswrite comment
1 2 3 4 5
x 4
add to favorites
launch autoscroll
font size
0
reset
how to read this tab
guitar tuner
Autoscroll
slow
fast
+/-
esc
set tempo
stop
Help us to improve Ultimate-Guitar.com Take our survey!
×
Author
Difficulty
novice
this is just the main riff played throughout the song not the whole thing. you can play 
in different tuning but i chose E standard kos its easiest enjoy

~=let ring
/=slide up
\=slide down

E|--------------------------------------------------------------------------|
B|--------------------------------------------------------------------------|
G|--------------------------------------------------------------------------|
D|----4-----4--------------4------4-------7-----4------4--------------4-----|
A|---5-5~--5-5-5/7-5-4-5--5-5~---5-5-5/7-5-5---5-5~---5-5-5/7-5-4-5--5-5----|
E|--2-----2--------------2------2-------------3------3--------------3-------|

E|--------------------------------------------------------------------------|
B|--------------------------------------------------------------------------|
G|--------------------------------------------------------------------------|
D|----4----7----------------------------------------------------------------|
A|---5-5--7-7---------------------------------------------------------------|
E|--3---/5------------------------------------------------------------------|

and just repeat that heaps
keep in touch for more details on the rest of the song
Suggest correction
comments
print report bad tab
guest
You may want to rate the tab now too:
select rating
Wanna post a correction for this tab? Suggest correction