Oops, an error
Loading. Please wait.

Greyson Tab

version 3
version 3

Whole song

Interactive

832 views 1 this week
no commentswrite comment
1 2 3 4 5
2 more votes to show rating
add to favorites
launch autoscroll
font size
0
reset
how to read this tab
guitar tuner
Autoscroll
slow
fast
+/-
esc
set tempo
stop
Help us to improve Ultimate-Guitar.com Take our survey!
×
Author
Difficulty
Tuning
advanced
B F# B E G# C#
---------------------------------------------------------------------------
                             GREYSON - All Shall Perish
---------------------------------------------------------------------------
Tabbed by: Aaron Strachan
Email: aj_strachan@hotmail.co uk

Tuning: Drop B

The rest will be up soon!

Main Tune
C#|---------------------------|--------------------------------------------|
G#|---------------------------|--------------------------------------------|
E |-------------------------x2|------------------------------------------10|
b |-----7------7--------------|-----7------7-----------------7-----7----12-|
F#|----5-8----5-8-8/10-8-7-8--|----8-8----8-8-8/10-8-7-8----8-8---8-8--10--|
B |---0------0----------------|---8------8-----------------8-----8----10---|

Solo

Guitar 1                                 _____________x2_______________
C#|----------88---88----------88---88-----------------------------------|
G#|------------------------------------------10-8----------------10-8---|
E |--7-9-10----10---10--7-9-7---10---10--7-10----10-10-9-10-7-10-----10-|
b |---------------------------------------------------------------------|
F#|---------------------------------------------------------------------|
B |---------------------------------------------------------------------|

Guitar 2                                      ___________x2_____________
C#|----------------------------------------------------------------------|
G#|---------1313--1313-----------1313--1313-------1311------------1311---|
E |-10-12-14----14----14-10-12-10----14----14-1014----141412141014----14-|
b |----------------------------------------------------------------------|
F#|----------------------------------------------------------------------|
B |----------------------------------------------------------------------|

Guitar 1
C#|------------------------------------------------------------------------|
G#|----------------------------------5h6p5------------------1011131110-10--|
E |-12b14-10h12p10-------------5-5757-----7-----------791012----------12-10|
b |---------------12-----5-5757-7----------7--75-57810---------------------|
F#|-------------------858-8---------------------8--------------------------|
B |------------------------------------------------------------------------|

Then an insanly fast bit i could work out from guitar  2


| /  slide up
| \  slide down
| h  hammer-on
| p  pull-off
| ~  vibrato
| +  harmonic
| x  Mute note
===============================================================================
Suggest correction
Give kudos to tab author, rate the tab!
1 2 3 4 5
comments
print report bad tab
guest
You may want to rate the tab now too:
select rating
Wanna post a correction for this tab? Suggest correction