Oops, an error
Loading. Please wait.

Laid To Rest Tab

version 3
version 3

Whole song

Interactive

4,706 views 1 this week
1 commentread comment
1 2 3 4 5
accurate
x 5
add to favorites
launch autoscroll
font size
0
reset
how to read this tab
guitar tuner
Autoscroll
slow
fast
+/-
esc
set tempo
stop
Help us to improve Ultimate-Guitar.com Take our survey!
×
Author
Difficulty
Tuning
intermediate
B F# B E G# C#
Tabbed by:renzo
Tuning:Drob B

(Trem Pick)
E|-------------------------------------------------------------------------|
B|-------------------------------------------------------------------------|
G|-------------------------------------------------------------------------|
D|-------------------------------------------------------------------------|
A|----5-8-5-------------5-8-5---10-8-7h8-7h8-7h8-7h8-----------------------|
E|--0-------8-10-8-10-0----------------------------------------------------|

E|-------------------------------------------------------------------------|
B|-------------------------------------------------------------------------|
G|-------------------------------------------------------------------------|
D|-------------------------------------------------------------------------|
A|----5-8-5-------------5-8-5----------------------------------------------|
E|--0-------8-10-8-10-0----------------------------------------------------|

Verse1
E|-------------------------------------------------------------------------|
B|-------------------------------------------------------------------------|
G|-------------------------------------------------------------------------|
D|------------777---------------------------777-888-777--------------------|
A|----555-888------888-555-888-555---555-888------------555-888------------|
E|--0------------------------------8---------------------------------------|

Continued..

E|-------------------------------------------------------------------------|
B|-------------------------------------------------------------------------|
G|-------------------------------------------------------------------------|
D|------------777----------------------------------777-888-----------------|
A|----777-888-----888-777--888-777-4444444-555-888-------------------------|
E|--5----------------------------------------------------------------------|
                                                                         x2

e|-------------------------------------------------------------------------|
B|-------------------------------------------------------------------------|
G|-------------------------------------------------------------------------|
D|0-----------1----0------7---6---0----------------------------------------|
A|0-------4/5--1-4-0---3/5--4-----0----------------------------------------|
E|0----------------0--------------0----------------------------------------|


E|-------------------------------------------------------------------------|
B|-------------------------------------------------------------------------|
G|-------------------------------------------------------------------------|
D|0-----------1----0------7---6---0------------1-----0---0--0--------------|
A|0-------4/5--1-4-0---3/5--4-----0-------4/5---1-4--0---0--0--------------|
E|0----------------0--------------0------------------0---0--0--------------|
                                                         *  *    x2

I'm not really sure about this part..
e|-------------------------------------------------------------------------|
B|-------------------------------------------------------------------------|
G|-------------------------------------------------------------------------|
D|0-0---0--000-000--3-6-4-3-6-----0-0---0--000-000--3-6-4-2-5--------------|
A|0-0---0--000-000--3-6-4-3-6-----0-0---0--000-000--3-6-4-2-5-3*-----------|
E|0-0---0--000-000--3-6-4-3-6-3*--0-0---0--000-000--3-6-4-2-5--------------|
  * *   *  *** ***                * *   *  *** ***

after that there was some palm muting then this..
e|-------------------------------------------------------------------------|
B|-------------------------------------------------------------------------|
G|-------------------------------------------------------------------------|
D|------7-------------7-8-7-----------7------------------7-----------------|
A|--5-8---555-555-5-8-------8-5---5-8---555-555--44444s5--8----------------|
E|-0----------------------------0------------------------------------------|

the fast part(Trem Picking)and btw there are some mild palmuting here..
e|-------------------------------------------------------------------------|
B|-------------------------------------------------------------------------|
G|-------------------------------------------------------------------------|
D|-------------------------------------------------------------------------|
A|---5-7-8--5-7-8-5-7-8-5-5-8-7-5------------------------------------------|
E|-0-------8-----5---------------------------------------------------------|
 continue (trem picking)repeat until it ends 

e|-------------------------------------------------------------------------|
B|-------------------------------------------------------------------------|
G|-------------------------------------------------------------------------|
D|-----7---------7---------------------------------------------------------|
A|--5-8-8-5-8-5-8-8-5-8-5------------5-7-5----------5-7--------------------|
E|-0---------8------------555555-7-8-------8-5-77777-----------------------|


e|-------------------------------------------------------------------------|
B|-------------------------------------------------------------------------|
G|--------------pickslide--------------------------------------------------|
D|-0---------0-8--"----5----8--7-------------------------------------------|
A|-0---------0-8--"----5----8--7-------------------------------------------|
E|-0---------0-8--"----5----8--7-------------------------------------------|
             *     
I'm not sure of the palm muting part so here goes the pick tapping part..
e|-------------------------------------------------------------------------|
B|-------------------------------------------------------------------------|
G|--10-7-10-7-10-7-10-7-10-7-10-7-10-7-9-6-9-6-9-6-9-6---------------------|
D|-----------------------------------------------------7-9-7-9-7-9-7-9-----|
A|-------------------------------------------------------------------------|
E|-------------------------------------------------------------------------|


Suggest correction
What's this?
You can suggest a correction to this tab. Community and Mods will review your correction and vote to approve or reject it.
comments
print report bad tab
1 comment total.
0 reply
Nor'Easterbass 1,440 wrote on July 25 2009, 10:56 am

sorry man, but there's just too much wrong with this tab. not to be a jerk, but check out mine (ver 2) if you want a much more accurate tab for this song. good effort tho, it's tough stuff.

guest
You may want to rate the tab now too:
select rating
Please do not post tabs as comments. Select "correction" instead!