Oops, an error
Loading. Please wait.

The Past Will Haunt Us Both Tab

version 1
version 1

Whole song

Interactive

3,610 views 1 this week
no commentswrite comment
1 2 3 4 5
accurate
x 6
add to favorites
launch autoscroll
font size
0
reset
how to read this tab
guitar tuner
Autoscroll
slow
fast
+/-
esc
set tempo
stop
Help us to improve Ultimate-Guitar.com Take our survey!
×
Author
Difficulty
Tuning
intermediate
B F# B E G# C#
--------------------------------------------------------------
        The Past Will Haunt Us Both - All Shall Perish
--------------------------------------------------------------
Tabbed by: Kristyn Lee
Email: spot_the_village_loony_836@hotmail.com

Tuning: Drop B

---------------------------------------------------------------------------
Intro  Guitar 1    x8
C#|--------------------------------------------------------|
G#|--------------------------------------------------------|
E |--------10/12----------17/19----12/14-------------------|
B |---12p0-------12\10/12-------12-------0-14-15\12--------|
F#|--------------------------------------------------------|
B |--------------------------------------------------------|
Guitar 2
C#|--------------------------------------------------------|
G#|--------------------------------------------------------|
E |--------------------------------------------------------|
B |--------------------------------------------------------|
F#|---0---5-5/8--0~-5-5/8-8/10--0~--5-5/8--5~-/8~--/10~----|
B |---0---5-5/8--0~-5-5/8-8/10--0~--5-5/8--5~-/8~--/10~----|

-------------------------------------------------------------------------

C#|-----------|
G#|-----------|
E |-----------|
B |---0~------|
F#|---0~------|
B |---0~------|

--------------------------------------------------------------------------
Verse

0:37     
C#|------------------------------------------------------------|
G#|------------------------------------------------------------|
E |------------------------------------------------------------|
B |------------------------------------------------------------|
F#|---12p8---7---8---7------------12p8---7---8---7----8----8---|
B |--------0---0---0---000-000-00------0---0---0---555--55-----|
           .   .   .   ... ... ..      .   .   .   ...  ..

C#|--------------------------------------------------------------|
G#|--------------------------------------------------------------|
E |--------------------------------------------------------------|
B |--------------------------------------------------------------|
F#|---12p8---7---8---7-------------8----8----8---8----8----8-----|
B |--------0---0---0---000-000-00----55---55---5---88---88---8---|
           .   .   .   ... ... ..    ..   ..   .   ..   ..   .

Play the above 2 bars x2

0:54   
C#|------------------------------------------------------------|
G#|---------------------------------------------------11\10----|
E |------------------------------------------------------------|
B |------------------------------------------------------------|
F#|---12p8---7---8---7------------12p8---7---8---8-12----------|
B |--------0---0---0---000-000-00------0---0---8---------------|
           .   .   .   ... ... ..      .   .   .
0:59
C#|----------------------------------------|
G#|----------------------------------------|
E |----------------------------------------|
B |----------------------------------9-10-------|
F#|---12--------8-----------12-----8-8-8--------|
B |------00-0-0---0-0-00-00---00-0-8-8-8--------|
         ..           .. ..   ..   
C#|---------------------------------------------------|
G#|---------------------------------------888/11------|
E |---------------------------------------xxx/x-------|
B |----------------------------------9-10-555/8-------|
F#|---12--------8-----------12-----8-8-8--555/8-------|
B |------00-0-0---0-0-00-00---00-0-8-8-8--555/8-------|
         ..           .. ..   ..
-------------------------------------------------------------------------
   1:10 - 1:42  play whole verse again
---------------------------------------------------------------------------
1:43  Chorus

Guitar 1
C#|--------------------------------------------------------|
G#|--------------------------------------------------------|
E |--------10/12----------17/19----12/14-------------------|
B |---12p0-------12\10/12-------12-------0-14-15\12--------|
F#|--------------------------------------------------------|
B |--------------------------------------------------------|

Guitar 2
C#|--------------------------------------------------------------------|
G#|--------------------------------------------------------------------|
E |--------------------------------------------------------------------|
B |--------------------------------------------------------------------|
F#|---00-0~-00-55-5/8-00-0~-00-55-5/8-8/10-00-0~--5-5/8--5~-/8~--/10~--|
B |---00-0~-00-55-5/8-00-0~-00-55-5/8-8/10-00-0~--5-5/8--5~-/8~--/10~--|
      ..    ..        ..    ..             ..
---------------------------------------------------------------------------
2:00
C#|--------------------------------------------------------------|
G#|--------------------------------------------------------------|
E |--------------------------------------------------------------|
B |--------------------------------------------------------------|
F#|---12p8---7---8---7-------------8----8----8---8----8----8-----|
B |--------0---0---0---000-000-00----55---55---5---88---88---8---|
           .   .   .   ... ... ..    ..   ..   .   ..   ..   .
C#|------------------------------------------------------------|
G#|---------------------------------------------------11\10----|
E |------------------------------------------------------------|
B |------------------------------------------------------------|
F#|---12p8---7---8---7------------12p8---7---8---8-12----------|
B |--------0---0---0---000-000-00------0---0---8---------------|
           .   .   .   ... ... ..      .   .   .

C#|----------------------------------------|
G#|----------------------------------------|
E |----------------------------------------|
B |----------------------------------9-10-------|
F#|---12--------8-----------12-----8-8-8--------|
B |------00-0-0---0-0-00-00---00-0-8-8-8--------|
         ..           .. ..   ..   
C#|---------------------------------------------------|
G#|---------------------------------------888/11------|
E |---------------------------------------xxx/x-------|
B |----------------------------------9-10-555/8-------|
F#|---12--------8-----------12-----8-8-8--555/8-------|
B |------00-0-0---0-0-00-00---00-0-8-8-8--555/8-------|
         ..           .. ..   ..
-------------------------------------------------------------------------
2:20       Play 2nd Chorus x2
-------------------------------------------------------------------------
2:54     Break down

C#|----------------------------------------------------|
G#|----------------------------------------------------|
E |----------------------------------------------------|
B |----------------------------------------------------|
F#|---000-00-0-00-000-000-0-0-0-000-000-0-0-0-000-000--|
B |---000-00-0-00-000-000-0-0-0-000-000-0-0-0-000-000--|
      ... .. . .. ... ... . . . ... ... . . . ... ...
no solo, some other awesome guitarist will tab it someday. 

3:29
      strum these really fast     x2
C#|-------------------------------------|
G#|---17--15--10---17--15--10--13-------|
E |---x---x---x----x---x---x---x--------|
B |---14--12--7----14--12--7---10-------|
F#|-------------------------------------|
B |-------------------------------------|


C#|--------------------------------------------------------------------|
G#|--------------------------------------------------------------------|
E |--------------------------------------------------------------------|
B |--------------------------------------------------------------------|
F#|---00-0~-00-55-5/8-00-0~-00-55-5/8-8/10-00-0~--5-5/8--5~-/8~--/10~--|
B |---00-0~-00-55-5/8-00-0~-00-55-5/8-8/10-00-0~--5-5/8--5~-/8~--/10~--|
      ..    ..        ..    ..             ..

3:47    repeat chorus


C#|-----------------|
G#|-----------------|
E |-----------------|
B |---0~------------|
F#|---0~------------|
B |---0~------------|

4:09  guitar 1
Im not entirely sure about this part, he plays it a few times
C#|----------------------------------------------|
G#|-------------10-------------------------------|
E |--------10------10----9h10p9------------------|
B |-----12----12----------------10---------------|
F#|--------------------------------12------------|
B |---0----------------0-------------------------|
      .                .
C#|----------------------------------|
G#|------6---6---6-------------------|
E |------------------10---9----------|
B |----------------------------------|
F#|----------------------------------|
B |---5----5---5---8----8------------|
      .    .   .   .    .
4:18   guitar 2
C#|--------------------------------|
G#|--------------------------------|
E |--------------------------------|
B |---8~---------------------------|
F#|---8~----------------55---------|
B |---8~----------------55---------|
                        ..
4:27   guitar 2
C#|---------------------------------------------------|
G#|--------------------------------11----8----11------|
E |--------------------------------10----7----10------|
B |---0~---5/8---0~---5/8----8~----8-----5----8-------|
F#|---0~---5/8---0~---5/8----8~----8-----5----8-------|
B |---0~---5/8---0~---5/8----8~----8-----5----8-------|

4:44    Repeat chorus, then it fades into the piano part

The End

************************************

| .   palm mute
| /   slide up
| \   slide down
| h   hammer-on
| p   pull-off
| ~   vibrato
| +   harmonic
| x   Mute note
| b   Bend
| pb  Pre-bend
| br  Bend release
| pbr Pre-bend release
| brb Bend release bend

************************************
Suggest correction
comments
print report bad tab
guest
You may want to rate the tab now too:
select rating
Wanna post a correction for this tab? Suggest correction