Oops, an error
Loading. Please wait.

There Is No Business To Be Done On A Dead Planet tab

version 2
version 2

Whole song

Interactive

1,649 views 1 this week
no commentswrite comment
1 2 3 4 5
3 more votes to show rating
add to favorites
×
Save as Personal and add changes to this tab that will be seen only by you. Learn more ›
×
You can save this tab as Personal to edit and correct it or add notes. All changes will be seen only by you. Learn more »
launch autoscroll
font size
0
reset
how to read this tab
guitar tuner
edit
Autoscroll
slow
fast
+/-
esc
set tempo
stop
Author
drop b tuning

pm - .
/-slide up
\slide down
* squeel
pt - pick tap

Both guitars riff 1
|-----------------------------------------------------------------------|
|-----------------------------------------------------------------------|
|----7------------------------------------------------------------------|
|----6-----000--------9p6----000--------9p6--8p5------000---------------|
|----5-----000----8p5--------000----8p5---------------000-----8p5-------|
|----------000---------------000----------------------000---------------|
PM -       ...               ...                      ...

|-----------------------------------------------------------------------|
|-----------------------------------------------------------------------|
|-------------------------10p7--9p6-9p6---------------------------------|
|---000---------9p6-8p5-------------------------------------------------|
|---000---8p5-----------------------------------------------------------|
|---000-----------------------------------------------------------------|
PM- ...


Guitar I  riff 1
|-----------------------------------------------------------------------|
|-----------------------------------------------------------------------|
|-----------------------------------------------------------------------|
|----------000--------9p6----000--------9p6--8p5------000---------------|
|----------000----8p5--------000----8p5---------------000-----8p5-------|
|----------000---------------000----------------------000---------------|
PM -       ...               ...                      ...

|-----------------------------------------------------------------------|
|-----------------------------------------------------------------------|
|-------------------------10p7--9p6-9p6---------------------------------|
|---000---------9p6-8p5-------------------------------------------------|
|---000---8p5-----------------------------------------------------------|
|---000-----------------------------------------------------------------|
PM- ...


Guitar II riff 1
|-----------------------------------------------------------------------|
|-----------------------------------------------------------------------|
|-----------------------------------------------------------------------|
|------000-----------12p9--000-----------12p9----11p8----000------------|
|------000-----11p8---------000---11p8-------------------000----11p8----|
|------000------------------000--------------------------000------------|
PM-    ...                  ...                          ...

|-----------------------------------------------------------------------|
|-----------------------------------------------------------------------|
|-------------------------------13p10--12p9--12p9-----------------------|
|----000----------12p9---11p8-------------------------------------------|
|----000----11p8--------------------------------------------------------|
|----000----------------------------------------------------------------|
PM-  ...                                          (riff 1 repeat x3)


Both guitars
|-----------------------------------------------------------------------|
|-----------------------------------------------------------------------|
|-----------------------------------------------------------------------|
|---12-8-----------11-7---------10-6---------7--------------------------|
|---------12-8-----------11-7---------10-6------10-8-7------------------|
|-----------------------------------------------------------------------|
PM        .  .            . .         . .

Guitar I
|-----------------------------------------------------------------------|
|-----------------------------------------------------------------------|
|-----------------------------------------------------------------------|
|------------------8-12--11-7-------------------------------------------|
|---------0--8-12---------------11-7-0--7-8-10-8-7-5--------------------|
|-----0-----------------------------------------------------------------|
PM    .                                            (guitar I repeat x3)

Guitar II wait till guitar I plays riff 3 times...then both guitars harmonize next riff
|-----------------------------------------------------------------------|
|-----------------------------------------------------------------------|
|-----------------------------------------------------------------------|
|--12-8--11-7--8-----7--------------------------------------------------|
|----------------10----8----10-7--8-5--7-4--5---------------------------|
|----------------------------------------------8------------------------|


Guitar I(harmony)
|-----------------------------------------------------------------------|
|-----------------------------------------------------------------------|
|-----------------------------------------------------------------------|
|--15-12--14-11---12-----11---------------------------------------------|
|--------------------13-----12----13-10--12-8--10-7--8------------------|
|-------------------------------------------------------12--------------|

Both Guitars riff 2
|-----------------------------------------------------------------------|
|-----------------------------------------------------------------------|
|-----------------------------------------------------------------------|
|------------------8-12--11-7-------------------------------------------|
|---------0--8-12---------------11-7-0--7-8-10-8-7-5--------------------|
|-----0-----------------------------------------------------------------|
PM    .                                          (both guitars repeat x3)

Guitar II
|-----------------------------------------------------------------------|
|-----------------------------------------------------------------------|
|-----------------------------------------------------------------------|
|--12-8--11-7--8-----7--------------------------------------------------|
|----------------10----8----10-7--8-5--7-4--5---------------------------|
|----------------------------------------------8------------------------|


Guitar I(harmony)
|-----------------------------------------------------------------------|
|-----------------------------------------------------------------------|
|-----------------------------------------------------------------------|
|--15-12--14-11---12-----11---------------------------------------------|
|--------------------13-----12----13-10--12-8--10-7--8------------------|
|-------------------------------------------------------12--------------|
                                                       (riff 2 repeat x2)


Both Guitars riff 3
|-----------------------------------------------------------------------|
|-----------------------------------------------------------------------|
|-----------------------------------------------------------------------|
|-----------------------------------------------------------------------|
|---------8-5--8-5-----8-5--8-5--8-5--8-5-----8-5--8-5------------------|
|------0------------0----------------------0----------------------------|
PM     .  . .  . .     . .  . .  . .  . .  .  . .  . .


|-----------------------------------------------------------------------|
|-----------------------------------------------------------------------|
|-----------------------------------------------------------------------|
|-----------------------6-9---------------------------------------------|
|-------8-5--8-5--8-5------------8-5--8-5-----8-5--7-5--7-4--7-4--------|
|----0-----------------------0-------------0----------------------------|
PM   .  . .  . .  . .   . .  .   . .  . .  .  . .  . .  . .  . .

Guitar I pick tap. hold finger on first note and tap other note with pick
|-----------------------------------------------------------------------|
|-----------------------------------------------------------------------|
|--------------------------7--10pt---6--9pt-----------------------------|
|--------------6--9pt---------------------------------------------------|
|----5--8pt-------------------------------------------------------------|
|-----------------------------------------------------------------------|
                                                     (riff 3 repeat x2)

Guitar I riff 4
|-----------------------------------------------------------------------|
|-----------------------------------------------------------------------|
|-----------------------------------------------------------------------|
|------------------8-12--11-7-------------------------------------------|
|---------0--8-12---------------11-7-0--7-8-10-8-7-5--------------------|
|-----0-----------------------------------------------------------------|
PM    .                                            (guitar I repeat x3)


Guitar II
|-----------------------------------------------------------------------|
|-----------------------------------------------------------------------|
|----------------------------/10----6-----------------------------------|
|---0------------1------------x-----x-----------------------------------|
|---0------------1-----------/7-----4-----------------------------------|
|---0------------1------------------------------------------------------|

Guitar II
|-----------------------------------------------------------------------|
|-----------------------------------------------------------------------|
|-----------------------------------------------------------------------|
|--12-8--11-7--8-----7--------------------------------------------------|
|----------------10----8----10-7--8-5--7-4--5---------------------------|
|----------------------------------------------8------------------------|

Guitar I(harmony)
|-----------------------------------------------------------------------|
|-----------------------------------------------------------------------|
|-----------------------------------------------------------------------|
|--15-12--14-11---12-----11---------------------------------------------|
|--------------------13-----12----13-10--12-8--10-7--8------------------|
|-------------------------------------------------------12--------------|
                                                       (riff 4 repeat x2)

Guitar I
|-----------------------|
|-----------------------|
|-----------------------|
|---000-000-000---------|
|---000-000-000---------|
|---000-000-000---------|
PM  ... ... ...

Guitar II
|-----------------------|
|-----------------------|
|-----------------------|
|---000-000-000---------|
|---000-000-000---------|
|---000-000-000---------|
PM  ... ... ...


Both Guitars
|----------------------|
|----------------------|
|----------------------|
|----00--1---00--1-----|
|----00--1---00--1-----|
|----00--1---00--1-----|
PM   ..      ..

Guitar I breakdown riff 5
|-----------------------------------------------------------------------|
|-----------------------------------------------------------------------|
|-----------------------------------------------------------------------|
|-000-000-000---000-000---000-000-000---000---000-000-000-000---000-----|
|-000-000-000---000-000---000-000-000---000---000-000-000-000---000-----|
|-000-000-000---000-000---000-000-000---000---000-000-000-000---000--3*-|
PM... ... ...   ... ...   ... ... ...   ...   ... ... ... ...   ...

Guitar II breakdown
|-----------------------------------------------------------------------|
|-----------------------------------------------------------------------|
|-----------------------------------------------------------------------|
|-000-000-000---000-000---000-000-000---000---000-000-000-000---000-----|
|-000-000-000---000-000---000-000-000---000---000-000-000-000---000-----|
|-000-000-000---000-000---000-000-000---000---000-000-000-000---000--6*-|
PM... ... ...   ... ...   ... ... ...   ...   ... ... ... ...   ...
(I havent figured out what lead guitar does, so i just play the breakdown both 
5 repeat x4  only squeel on the first one)


Both guitars riff 6
|-----------------------------------------------------------------------|
|-----------------------------------------------------------------------|
|-----------------------------------------------------------------------|
|-----00-1-00-1----00---00---00---0000-00-00----------------------------|
|-----00-1-00-1----00---00---00---0000-00-00----------------------------|
|-----00-1-00-1----00---00---00---0000-00-00----------------------------|
PM    ..   ..      ..   ..   ..   .... .. ..

|-----------------------------------------------------------------------|
|-----------------------------------------------------------------------|
|-----------------------------------------------------------------------|
|-----------------------------------------------------------------------|
|---7--7----7--7----7--7-----7--7--7--7----7--7----7--7-----------------|
|---11-11---11-11---11-11----11-11-11-11---11-11---11-11----------------|
PM  .. ..   .. ..   .. ..    .. .. .. ..   .. ..   .. ..
                                                       (riff 6 repeat x2)
Both guitars
|----------------------|
|----------------------|
|----------------------|
|----00-00--0000-------|
|----00-00--0000-------|
|----00-00--0000-------|
PM   .. ..  ....


Guitar I breakdown riff 7
|-----------------------------------------------------------------------|
|-----------------------------------------------------------------------|
|-----------------------------------------------------------------------|
|-000-000-000---000-000---000-000-000---000---000-000-000-000---000-----|
|-000-000-000---000-000---000-000-000---000---000-000-000-000---000-----|
|-000-000-000---000-000---000-000-000---000---000-000-000-000---000-----|
PM... ... ...   ... ...   ... ... ...   ...   ... ... ... ...   ...


Guitar II
|-----------------------------------------------------------------------|
|-----------------------------------------------------------------------|
|-----------------------------------------------------------------------|
|-----------------------------------------------------------------------|
|---------8-5--8-5-----8-5--8-5--8-5--8-5-----8-5--8-5------------------|
|------0------------0----------------------0----------------------------|
PM     .  . .  . .     . .  . .  . .  . .  .  . .  . .


|-----------------------------------------------------------------------|
|-----------------------------------------------------------------------|
|-----------------------------------------------------------------------|
|-----------------------6-9---------------------------------------------|
|-------8-5--8-5--8-5------------8-5--8-5-----8-5--7-5--7-4--7-4--------|
|----0-----------------------0-------------0----------------------------|
PM   .  . .  . .  . .   . .  .   . .  . .  .  . .  . .  . .  . .

Guitar II pick tap. hold finger on first note and tap other note with pick
|-----------------------------------------------------------------------|
|-----------------------------------------------------------------------|
|--------------------------7--10pt---6--9pt-----------------------------|
|--------------6--9pt---------------------------------------------------|
|----5--8pt-------------------------------------------------------------|
|-----------------------------------------------------------------------|
                                                     (riff 7 repeat x2)


Both Guitars riff 7
|-----------------------------------------------------------------------|
|-----------------------------------------------------------------------|
|-----------------------------------------------------------------------|
|-----------------------------------------------------------------------|
|---------8-5--8-5-----8-5--8-5--8-5--8-5-----8-5--8-5------------------|
|------0------------0----------------------0----------------------------|
PM     .  . .  . .     . .  . .  . .  . .  .  . .  . .


|-----------------------------------------------------------------------|
|-----------------------------------------------------------------------|
|-----------------------------------------------------------------------|
|-----------------------6-9---------------------------------------------|
|-------8-5--8-5--8-5------------8-5--8-5-----8-5--7-5--7-4--7-4--------|
|----0-----------------------0-------------0----------------------------|
PM   .  . .  . .  . .   . .  .   . .  . .  .  . .  . .  . .  . .

Guitar I pick tap. hold finger on first note and tap other note with pick
|-----------------------------------------------------------------------|
|-----------------------------------------------------------------------|
|--------------------------7--10pt---6--9pt-----------------------------|
|--------------6--9pt---------------------------------------------------|
|----5--8pt-------------------------------------------------------------|
|-----------------------------------------------------------------------|
                                                     (riff 7 repeat x2)
Both Guitars
|-----------------------------------------------------------------------|
|-----------------------------------------------------------------------|
|-----------------------------------------------------------------------|
|-----------------------0-----------------------------------------------|
|--------8-5--7-5--7-4--0-----------------------------------------------|
|---0-------------------0-----------------------------------------------|
PM  .    . .  . .  . .  


and thats the whole song

            
            
Suggest correction
Creating personal tab
Creating personal tab
You can edit any tab online and save it as your Personal.

You can edit, replace or remove any tab part or add personal notes – all changes will be seen only by you.

Personal tabs can be accessed anytime from any device, even offline.
Learn more »
Give kudos to tab author, rate the tab!
1 2 3 4 5
comments
print report bad tab
guest
You may want to rate the tab now too:
select rating
Wanna post a correction for this tab? Suggest correction