Oops, an error
Loading. Please wait.

There Is No Business To Be Done On A Dead Planet tab

version 3
version 3

Whole song

Interactive

9,536 views 9 this week
3 commentsread comments
1 2 3 4 5
x 6
add to favorites
×
Save as Personal and add changes to this tab that will be seen only by you. Learn more ›
×
You can save this tab as Personal to edit and correct it or add notes. All changes will be seen only by you. Learn more »
launch autoscroll
font size
0
reset
how to read this tab
guitar tuner
edit
Autoscroll
slow
fast
+/-
esc
set tempo
stop
Artist: All Shall Perish
Song: Wage Slaves
Album: The Price Of Existence
Tabbed by: GuitarsIsNeat

Tuning:(B F# B E G# c#)

.=Palm Mute
~=Let Ring
*=Pinch Harmonic
h,p=Hammer On, Pull Off
PT=Pick Tapping
/=Slide Up
L,R=Left or Right Hand Tapping

(Guitar 1)= Right Speaker
(Guitar 2)= Left Speaker

  0:00-0:02  
  (Guitar 1)
c#|-----------------|
G#|-----------------|
E |--7~~~~~~~~~~----|
B |--6~~~~~~~~~~----|
F#|--5~~~~~~~~~~----|
B |-----------------|

  (Guitar 2)
c#|-----------------|
G#|-----------------|
E |--7~~~~~~~~~~----|
B |--6~~~~~~~~~~----|
F#|--5~~~~~~~~~~----|
B |-----------------|

  0:02-0:06
  (Guitar 1 & 2)
c#|--------------------------------------------------------------------|
G#|--------------------------------------------------------------------|
E |-----------------------------------------------------9p6-8p5-8p5----|
B |---------9p6---------9p6-8p5-----------------9p6-8p5----------------|
F#|-----8p5---------8p5-------------8p5-----8p5------------------------|
B |-000---------000-------------000-----000----------------------------|
    ... . .     ... . .         ... . . ... . .

  0:06-0:19
  (Guitar 1)
c#|--------------------------------------------------------------------|
G#|--------------------------------------------------------------------|
E |-----------------------------------------------------9p6-8p5-8p5----|
B |---------9p6---------9p6-8p5-----------------9p6-8p5----------------|
F#|-----8p5---------8p5-------------8p5-----8p5------------------------|
B |-000---------000-------------000-----000----------------------------|
    ... . .     ... . .         ... . . ... . .

  0:06-0:19
  (Guitar 2)
c#|--------------------------------------------------------------------|
G#|--------------------------------------------------------------------|
E |-----------------------------------------------------7p4-6p3-6p3----|
B |---------7p4---------7p4-6p3-----------------7p4-6p3----------------|
F#|-----6p3---------6p3-------------6p3-----6p3------------------------|
B |-000---------000-------------000-----000----------------------------|
    ... . .     ... . .         ... . . ... . .

  0:19-0:22
  (Guitar 1 & 2)
c#|--------------------------------------------|
G#|--------------------------------------------|
E |--------------------------------------------|
B |-12p8------11p7------10p6------9p6----------|
F#|------12p8------11p7------10p6-----9p6------|
B |--------------------------------------------|
          . .       . .       . .     . .

  0:22-0:29
  (Guitar 1)
c#|-----------------------------------------|
G#|-----------------------------------------|
E |-----------------------------------------|-(x3)
B |----------8-12-11-7----------------------|
F#|---0-8-12-----------11-7-0-7-8-10-8-7----|
B |-0---------------------------------------|

  0:22-0:29
  (Guitar 2)
c#|-----------------------------------------|
G#|-----------------------------------------|
E |-----------------------------------------|
B |-0---------------------------------------|
F#|-0---------------------------------------|
B |-0---------------------------------------|

  0:29-0:31
  (Guitar 1)
c#|----------------------------------------------|
G#|-10-------------------------------------------|
E |----9-10-7-9-6-7---6--------------------------|
B |-----------------8---7-8-6-7---6--------------|
F#|-----------------------------8---7------------|
B |----------------------------------------------|
  
  0:29-0:31
  (Guitar 2)
c#|----------------------------------|
G#|-6--------------------------------|
E |---6-7-6--------------------------|
B |---------7-8-5-7---5--------------|
F#|-----------------8---7-8-5-7-4----|
B |----------------------------------|

  0:31-0:38
  (Guitar 1 & 2)
c#|-----------------------------------------|
G#|-----------------------------------------|
E |-----------------------------------------|-(x3)
B |----------8-12-11-7----------------------|
F#|---0-8-12-----------11-7-0-7-8-10-8-7----|
B |-0---------------------------------------|

  0:38-0:40
  (Guitar 1)
c#|----------------------------------------------|
G#|-10-------------------------------------------|
E |----9-10-7-9-6-7---6--------------------------|
B |-----------------8---7-8-6-7---6--------------|
F#|-----------------------------8---7------------|
B |----------------------------------------------|
  
  0:38-0:40
  (Guitar 2)
c#|----------------------------------|
G#|-6--------------------------------|
E |---6-7-6--------------------------|
B |---------7-8-5-7---5--------------|
F#|-----------------8---7-8-5-7-4----|
B |----------------------------------|

  0:40-0:47
  (Guitar 1 & 2)
c#|-----------------------------------------|
G#|-----------------------------------------|
E |-----------------------------------------|-(x3)
B |----------8-12-11-7----------------------|
F#|---0-8-12-----------11-7-0-7-8-10-8-7----|
B |-0---------------------------------------|

  0:47-0:49
  (Guitar 1)
c#|----------------------------------------------|
G#|-10-------------------------------------------|
E |----9-10-7-9-6-7---6--------------------------|
B |-----------------8---7-8-6-7---6--------------|
F#|-----------------------------8---7------------|
B |----------------------------------------------|
  
  0:47-0:49
  (Guitar 2)
c#|----------------------------------|
G#|-6--------------------------------|
E |---6-7-6--------------------------|
B |---------7-8-5-7---5--------------|
F#|-----------------8---7-8-5-7-4----|
B |----------------------------------|

  0:48-0:50
  (Guitar 1 & 2)
c#|--------------------------------|
G#|--------------------------------|
E |--------------------------------|
B |-0---------0--------------------|
F#|-0-8-5-8-5-0-8-5-8-5-8-5-7-4----|
B |-0-0-0-0-0-0-0-0-0-0-0-0-0-0----|
    . . . . . . . . . . . . . . 
 
  0:50-0:52
  (Guitar 1 & 2)
c#|--------------------------------|
G#|--------------------------------|
E |--------------------------------|
B |-0---------0-------------8-5----|
F#|-0-8-5-8-5-0-8-5-8-5-8-5--------|
B |-0-0-0-0-0-0-0-0-0-0-0-0-0-0----|
    . . . . . . . . . . . . . .
 
  0:52-0:54
  (Guitar 1 & 2)
c#|--------------------------------|
G#|--------------------------------|
E |--------------------------------|
B |-0---------0--------------------|
F#|-0-8-5-8-5-0-8-5-8-5-8-5-7-4----|
B |-0-0-0-0-0-0-0-0-0-0-0-0-0-0----|
    . . . . . . . . . . . . . . 

  0:55-0:57
  (Guitar 1 & 2)
c#|--------------------------------|
G#|-------------PT----PT-----------|
E |--------PT--7h10--6h9-----------|-(Pick Tapping in this Section)
B |---PT--6h9----------------------|
F#|--5h8---------------------------|
B |--------------------------------|
    
  0:57-0:59
  (Guitar 1 & 2)
c#|--------------------------------|
G#|--------------------------------|
E |--------------------------------|
B |-0---------0--------------------|
F#|-0-8-5-8-5-0-8-5-8-5-8-5-7-4----|
B |-0-0-0-0-0-0-0-0-0-0-0-0-0-0----|
    . . . . . . . . . . . . . . 
 
  0:59-1:01
  (Guitar 1 & 2)
c#|--------------------------------|
G#|--------------------------------|
E |--------------------------------|
B |-0---------0-------------8-5----|
F#|-0-8-5-8-5-0-8-5-8-5-8-5--------|
B |-0-0-0-0-0-0-0-0-0-0-0-0-0-0----|
    . . . . . . . . . . . . . .
 
  1:01-1:03
  (Guitar 1 & 2)
c#|--------------------------------|
G#|--------------------------------|
E |--------------------------------|
B |-0---------0--------------------|
F#|-0-8-5-8-5-0-8-5-8-5-8-5-7-4----|
B |-0-0-0-0-0-0-0-0-0-0-0-0-0-0----|
    . . . . . . . . . . . . . . 

  1:03-1:05
  (Guitar 1 & 2)
c#|--------------------------------|
G#|-------------PT----PT-----------|
E |--------PT--7h10--6h9-----------|-(Pick Tapping in this Section)
B |---PT--6h9----------------------|
F#|--5h8---------------------------|
B |--------------------------------|
   
  1:08-1:14
  (Guitar 1)
c#|-----------------------------------------|
G#|-----------------------------------------|
E |-----------------------------------------|-(x3)
B |----------8-12-11-7----------------------|
F#|---0-8-12-----------11-7-0-7-8-10-8-7----|
B |-0---------------------------------------|

  1:08-1:14
  (Guitar 2)
c#|-----------------------------------------|
G#|-----------------------------------------|
E |-----------------------------------------|
B |-0~~~~~----2~~~~-3~~~~----11~~~~---------|
F#|-0~~~~~----2~~~~-3~~~~----11~~~~---------|
B |-0~~~~~----2~~~~-3~~~~----11~~~~---------|

  1:14-1:16
  (Guitar 1)
c#|----------------------------------------------|
G#|-10-------------------------------------------|
E |----9-10-7-9-6-7---6--------------------------|
B |-----------------8---7-8-6-7---6--------------|
F#|-----------------------------8---7------------|
B |----------------------------------------------|
  
  1:14-1:16
  (Guitar 2)
c#|----------------------------------|
G#|-6--------------------------------|
E |---6-7-6--------------------------|
B |---------7-8-5-7---5--------------|
F#|-----------------8---7-8-5-7-4----|
B |----------------------------------|

  1:18-1:23
  (Guitar 1)
c#|-----------------------------------------|
G#|-----------------------------------------|
E |-----------------------------------------|-(x3)
B |----------8-12-11-7----------------------|
F#|---0-8-12-----------11-7-0-7-8-10-8-7----|
B |-0---------------------------------------|

  1:18-1:23
  (Guitar 2)
c#|-----------------------------------------|
G#|-----------------------------------------|
E |-----------------------------------------|
B |-0~~~~~----2~~~~-3~~~~----11~~~~---------|
F#|-0~~~~~----2~~~~-3~~~~----11~~~~---------|
B |-0~~~~~----2~~~~-3~~~~----11~~~~---------|

  1:23-1:25
  (Guitar 1)
c#|----------------------------------------------|
G#|-10-------------------------------------------|
E |----9-10-7-9-6-7---6--------------------------|
B |-----------------8---7-8-6-7---6--------------|
F#|-----------------------------8---7------------|
B |----------------------------------------------|
  
  1:23-1:25
  (Guitar 2)
c#|----------------------------------|
G#|-6--------------------------------|
E |---6-7-6--------------------------|
B |---------7-8-5-7---5--------------|
F#|-----------------8---7-8-5-7-4----|
B |----------------------------------|

  1:26-1:31
  (Guitar 1)
c#|-----------------------------------------------|
G#|-----------------------------------------------|
E |-----------------------------------------------|
B |-------------000-000-000------0-0-1~-0-0-1~----|
F#|-------------000-000-000------0-0-1~-0-0-1~----|
B |-------------000-000-000------0-0-1~-0-0-1~----|
                ... ... ...      . .    . . 

  1:26-1:31
  (Guitar 2)
c#|-----------------------------------------------|
G#|-----------------------------------------------|
E |-----------------------------------------------|
B |--000-000-000-----------------0-0-1~-0-0-1~----|
F#|--000-000-000-----------------0-0-1~-0-0-1~----|
B |--000-000-000-----------------0-0-1~-0-0-1~----|
     ... ... ...                 . .    . .

  1:31-1:33
  (Guitar 1 & 2)
c#|-----------------------------------------|
G#|-----------------------------------------|
E |-----------------------------------------|
B |-000-000-000----000--000--000-000-000----|
F#|-000-000-000----000--000--000-000-000----|
B |-000-000-000----000--000--000-000-000----|
    ... ... ...    ...  ...  ... ... ...

  1:33-1:38
  (Guitar 1 & 2)
c#|-------------------------------------|
G#|-------------------------------------|
E |-------------------------------------|
B |-000----000-000-000-000-000----------|
F#|-000----000-000-000-000-000-*--------|
B |-000----000-000-000-000-000-3~~~~----|
    ...    ... ... ... ... ...

  1:38-1:43
  (Guitar 1 & 2)
c#|-----------------------------------------|
G#|-----------------------------------------|
E |-----------------------------------------|
B |-000-000-000----000--000--000-000-000----|
F#|-000-000-000----000--000--000-000-000----|
B |-000-000-000----000--000--000-000-000----|
    ... ... ...    ...  ...  ... ... ...

  1:43-1:46
  (Guitar 1 & 2)
c#|-------------------------------------|
G#|-------------------------------------|
E |-------------------------------------|
B |-000----000-000-000-000-000----------|
F#|-000----000-000-000-000-000----------|
B |-000----000-000-000-000-000----------|
    ...    ... ... ... ... ...

  1:48-1:52
  (Guitar 1)
     L    L   R   L   L   R   R  R
c#|-----------------------------------|
G#|-----------------------------------|
E |----------------------12-----------|-(x4)
B |----------12--------------12/13----|
F#|------10------10-------------------|
B |--10--------------10---------------|

  1:48-1:52
  (Guitar 2)
c#|-----------------------------------------|
G#|-----------------------------------------|
E |-----------------------------------------|
B |-000-000-000----000--000--000-000-000----|
F#|-000-000-000----000--000--000-000-000----|
B |-000-000-000----000--000--000-000-000----|
    ... ... ...    ...  ...  ... ... ...

  1:52-1:56
  (Guitar 1)
     L  L   R  L  L   R   R  R
c#|-------------------------------|
G#|-------------------------------|
E |------------------11-----------|-(x4)
B |--------11------------11/12----|
F#|-----9------9------------------|
B |--9------------9---------------|

  1:52-1:56
  (Guitar 2)
c#|-------------------------------------|
G#|-------------------------------------|
E |-------------------------------------|
B |-000----000-000-000-000-000----------|
F#|-000----000-000-000-000-000----------|
B |-000----000-000-000-000-000----------|
    ...    ... ... ... ... ...

  1:56-2:00
  (Guitar 1)
     L    L   R   L   L   R   R  R
c#|-----------------------------------|
G#|-----------------------------------|
E |----------------------12-----------|-(x4)
B |----------12--------------12/13----|
F#|------10------10-------------------|
B |--10--------------10---------------|

  1:56-2:00
  (Guitar 2)
c#|-----------------------------------------|
G#|-----------------------------------------|
E |-----------------------------------------|
B |-000-000-000----000--000--000-000-000----|
F#|-000-000-000----000--000--000-000-000----|
B |-000-000-000----000--000--000-000-000----|
    ... ... ...    ...  ...  ... ... ...

  2:01-2:04
  (Guitar 1)
     L  L   R  L  L   R   R  R
c#|-------------------------------|
G#|-------------------------------|
E |------------------11-----------|-(x4)
B |--------11------------11/12----|
F#|-----9------9------------------|
B |--9------------9---------------|

  2:01-2:04
  (Guitar 2)
c#|------------------------------------------------|
G#|------------------------------------------------|
E |------------------------------------------------|
B |-000----000-000-000-000-000----0-0-1~-0-0-1~----|
F#|-000----000-000-000-000-000----0-0-1~-0-0-1~----|
B |-000----000-000-000-000-000----0-0-1~-0-0-1~----|
    ...    ... ... ... ... ...    . .    . .

  2:04-2:21
  (Guitar 1 & 2)
c#|------------------------|
G#|------------------------|
E |------------------------|-(x4)
B |-00-00-00-0000-00-00----|
F#|-00-00-00-0000-00-00----|
B |-00-00-00-0000-00-00----|
    .. .. .. .... .. ..

  2:21-2:23
  (Guitar 1 & 2)
c#|---------------|
G#|---------------|
E |---------------|
B |-00-00-00-0----|
F#|-00-00-00-0----|
B |-00-00-00-0----|
    .. .. .. .

  2:23-2:28
  (Guitar 1)
c#|--------------------|
G#|--------------------|
E |--------------------|-----------------------|
B |-(x7)----(x7)8p5----|                       |
F#|-8p5-7p4-8p5--------|                       |
B |--------------------|                       |
    . .     . .                                | 
                                               |
  2:23-2:28                                    |
  (Guitar 2)                                   |
c#|-----------------------------------------|  |
G#|-----------------------------------------|  |
E |-----------------------------------------|  |
B |-000-000-000----000--000--000-000-000----|  |
F#|-000-000-000----000--000--000-000-000----|  |
B |-000-000-000----000--000--000-000-000----|  |
    ... ... ...    ...  ...  ... ... ...       |
                                               |-(x2)
  2:28-2:33                                    |
  (Guitar 1)                                   |
c#|------------------------------|             |
G#|--------------------PT--PT----|             | 
E |---------------PT-10p7-9p6----|             |
B |-(x7)------PT-9p6-------------|             |
F#|-8p5-7p4--8p5-----------------|             |
B |------------------------------|             |
    . .                                        |
                                               |
  2:28-2:33                                    |
  (Guitar 2)                                   |
c#|-------------------------------------|      |
G#|-------------------------------------|      |
E |-------------------------------------|      |
B |-000----000-000-000-000-000----------|------|
F#|-000----000-000-000-000-000----------|
B |-000----000-000-000-000-000----------|
    ...    ... ... ... ... ...

  2:42-2:44
  (Guitar 1 & 2)
c#|--------------------------------|
G#|--------------------------------|
E |--------------------------------|
B |-0---------0--------------------|
F#|-0-8-5-8-5-0-8-5-8-5-8-5-7-4----|
B |-0-0-0-0-0-0-0-0-0-0-0-0-0-0----|
    . . . . . . . . . . . . . . 
 
  2:44-2:46
  (Guitar 1 & 2)
c#|--------------------------------|
G#|--------------------------------|
E |--------------------------------|
B |-0---------0-------------8-5----|
F#|-0-8-5-8-5-0-8-5-8-5-8-5--------|
B |-0-0-0-0-0-0-0-0-0-0-0-0-0-0----|
    . . . . . . . . . . . . . .
 
  2:46-2:48
  (Guitar 1 & 2)
c#|--------------------------------|
G#|--------------------------------|
E |--------------------------------|
B |-0---------0--------------------|
F#|-0-8-5-8-5-0-8-5-8-5-8-5-7-4----|
B |-0-0-0-0-0-0-0-0-0-0-0-0-0-0----|
    . . . . . . . . . . . . . . 

  2:48-2:50
  (Guitar 1 & 2)
c#|--------------------------------|
G#|-------------PT----PT-----------|
E |--------PT--7h10--6h9-----------|
B |---PT--6h9----------------------|
F#|--5h8---------------------------|
B |--------------------------------|

  2:50-2:52
  (Guitar 1 & 2)
c#|--------------------------------|
G#|--------------------------------|
E |--------------------------------|
B |-0---------0--------------------|
F#|-0-8-5-8-5-0-8-5-8-5-8-5-7-4----|
B |-0-0-0-0-0-0-0-0-0-0-0-0-0-0----|
    . . . . . . . . . . . . . .
 
  2:52-2:54
  (Guitar 1 & 2)
c#|--------------------------------|
G#|--------------------------------|
E |--------------------------------|
B |-0---------0-------------8-5----|
F#|-0-8-5-8-5-0-8-5-8-5-8-5--------|
B |-0-0-0-0-0-0-0-0-0-0-0-0-0-0----|
    . . . . . . . . . . . . . .
 
  2:54-2:56
  (Guitar 1 & 2)
c#|--------------------------------|
G#|--------------------------------|
E |--------------------------------|
B |-0---------0--------------------|
F#|-0-8-5-8-5-0-8-5-8-5-8-5-7-4----|
B |-0-0-0-0-0-0-0-0-0-0-0-0-0-0----|
    . . . . . . . . . . . . . . 

  2:56-2:58
  (Guitar 1 & 2)
c#|--------------------------------|
G#|-------------PT----PT-----------|
E |--------PT--7h10--6h9-----------|
B |---PT--6h9----------------------|
F#|--5h8---------------------------|
B |--------------------------------|

  2:58-3:01
  (Guitar 1 & 2)
c#|--------------------|
G#|--------------------|
E |--------------------|
B |-0-------------0----|
F#|-0-8-5-8-5-8-5-0----|
B |-0-0-0-0-0-0-0-0----|
    . . . . . . . .

            
            
Suggest correction
Creating personal tab
Creating personal tab
You can edit any tab online and save it as your Personal.

You can edit, replace or remove any tab part or add personal notes – all changes will be seen only by you.

Personal tabs can be accessed anytime from any device, even offline.
Learn more »
comments
print report bad tab
3 comments total.
+1 reply
guitar_freak91 1,099 Mar 22, 2008 08:48 PM

they use 7 strings.

+1 reply
GuitarsIsNeat 53 Mar 23, 2008 10:17 AM

i know they use 7 strings but you can play most of their songs on a 6 string

0 reply
longlive m&m 10 Dec 29, 2010 06:51 AM

THIS SONG IS AWESOME 5/5

guest
You may want to rate the tab now too:
select rating
Wanna post a correction for this tab? Suggest correction