Oops, an error
Loading. Please wait.

Wage Slaves tab

version 2
version 2

Whole song

Interactive

20,664 views 3 this week
5 commentsread comments
1 2 3 4 5
x 10
add to favorites
×
Save as Personal and add changes to this tab that will be seen only by you. Learn more ›
×
You can save this tab as Personal to edit and correct it or add notes. All changes will be seen only by you. Learn more »
launch autoscroll
font size
0
reset
how to read this tab
guitar tuner
edit
Autoscroll
slow
fast
+/-
esc
set tempo
stop
Artist: All Shall Perish
Song: Wage Slaves
Album: The Price Of Existence
Tabbed by: GuitarsIsNeat

Tuning:(B F# B E G# c#)

.=Palm Mute
~=Let Ring
*=Pinch Harmonic
h,p=Hammer On, Pull Off
t=Tremelo Picking
\=Slide Down

(Guitar 1)= Right Speaker
(Guitar 2)= Left Speaker

  0:00-0:05 
  (Guitar 1)
c#|--------------------------------------------------------------|
G#|--------------------------------------------------------------|
E |--------------------------------------------------------------|
B |1~-000-000----0-1-3-000----1~-000-000----00-3-1-0-4-3-0-------|
F#|1~-000-000----0-1-3-000----1~-000-000----00-3-1-0-4-3-0-*-----|
B |1~-000-000----0-1-3-000----1~-000-000----00-3-1-0-4-3-0-3~----|
      ... ...    . . . ...       ... ...    .. . . . . . .

  (Guitar 2)
c#|--------------------------------------------------------------|
G#|--------------------------------------------------------------|
E |--------------------------------------------------------------|
B |--------------------------------------------------------------|
F#|--------------------------------------------------------------|
B |--------------------------------------------------------------|

  0:05-0:10
  (Guitar 1)
c#|--------------------------------------------------------------|
G#|--------------------------------------------------------------|
E |--------------------------------------------------------------|
B |1~-000-000----0-1-3-000----1~-000-000----00-3-1-0-4-3-0-------|
F#|1~-000-000----0-1-3-000----1~-000-000----00-3-1-0-4-3-0-*-----|
B |1~-000-000----0-1-3-000----1~-000-000----00-3-1-0-4-3-0-3~----|
      ... ...    . . . ...       ... ...    .. . . . . . .

  (Guitar 2)
c#|--------------------------------------------------------------|
G#|--------------------------------------------------------------|
E |--------------------------------------------------------------|
B |1~-000-000-----------------1~-000-000----00-3-1-0-4-3-0-*-----|
F#|1~-000-000-----------------1~-000-000----00-3-1-0-4-3-0-3~----|
B |1~-000-000-----------------1~-000-000----00-3-1-0-4-3-0-------|
      ... ...                    ... ...    .. . . . . . .

  0:10-0:20
  (Guitar 1)
c#|--------------------------------------------------------------|
G#|--------------------------------------------------------------|
E |--------------------------------------------------------------|
B |1~-000-000----0-1-3-000----1~-000-000----00-3-1-0-4-3-0-------|
F#|1~-000-000----0-1-3-000----1~-000-000----00-3-1-0-4-3-0-*-----|
B |1~-000-000----0-1-3-000----1~-000-000----00-3-1-0-4-3-0-3~----|
      ... ...    . . . ...       ... ...    .. . . . . . .

  (Guitar 2)
c#|--------------------------------------------------------------|
G#|--------------------------------------------------------------|
E |--------------------------------------------------------------|
B |1~-000-000----0-1-3-000----1~-000-000----00-3-1-0-4-3-0-*-----|
F#|1~-000-000----0-1-3-000----1~-000-000----00-3-1-0-4-3-0-3~----|
B |1~-000-000----0-1-3-000----1~-000-000----00-3-1-0-4-3-0-------|
      ... ...    . . . ...       ... ...    .. . . . . . .

  (Guitar 1)
c#|--------------------------------------------------------------|
G#|--------------------------------------------------------------|
E |--------------------------------------------------------------|
B |1~-000-000----0-1-3-000----1~-000-000----00-3-1-0-4-3-0-------|
F#|1~-000-000----0-1-3-000----1~-000-000----00-3-1-0-4-3-0-*-----|
B |1~-000-000----0-1-3-000----1~-000-000----00-3-1-0-4-3-0-3~----|
      ... ...    . . . ...       ... ...    .. . . . . . .

  (Guitar 2)
c#|--------------------------------------------------------------|
G#|--------------------------------------------------------------|
E |--------------------------------------------------------------|
B |1~-000-000----0-1-3-000----1~-000-000----00-3-1-0-4-3-0-*-----|
F#|1~-000-000----0-1-3-000----1~-000-000----00-3-1-0-4-3-0-3~----|
B |1~-000-000----0-1-3-000----1~-000-000----00-3-1-0-4-3-0-------|
      ... ...    . . . ...       ... ...    .. . . . . . .

  0:20-0:30
  (Guitar 1)
c#|--------------------------------------------------------------|
G#|--------------------------------------------------------------|
E |--------------------------------------------------------------|
B |----------000-----------00------------00--00-3-1-0-4-3-0------|
F#|----------000-----------00------------00--00-3-1-0-4-3-0-*----|
B |----------000-----------00------------00--00-3-1-0-4-3-0-3~---|
             ...           ..            ..  .. . . . . . .

  (Guitar 2)
c#|--------------------------------------------------------------|
G#|--------------------------------------------------------------|
E |--------------------------------------------------------------|
B |1~-000-000----0-1-3-000----1~-000-000----00-3-1-0-4-3-0-*-----|
F#|1~-000-000----0-1-3-000----1~-000-000----00-3-1-0-4-3-0-3~----|
B |1~-000-000----0-1-3-000----1~-000-000----00-3-1-0-4-3-0-------|
      ... ...    . . . ...       ... ...    .. . . . . . .

  (Guitar 1)
c#|--------------------------------------------------------------|
G#|--------------------------------------------------------------|
E |--------------------------------------------------------------|
B |1~-000-000----0-1-3-000----1~-000-000----00-3-1-0-4-3-0-------|
F#|1~-000-000----0-1-3-000----1~-000-000----00-3-1-0-4-3-0-*-----|
B |1~-000-000----0-1-3-000----1~-000-000----00-3-1-0-4-3-0-3~----|
      ... ...    . . . ...       ... ...    .. . . . . . .

  (Guitar 2)
c#|--------------------------------------------------------------|
G#|--------------------------------------------------------------|
E |--------------------------------------------------------------|
B |----------000-----------00------------00--00-3-1-0-4-3-0-*----|
F#|----------000-----------00------------00--00-3-1-0-4-3-0-3~---|
B |----------000-----------00------------00--00-3-1-0-4-3-0------|
             ...           ..            ..  .. . . . . . .

  0:30-0:38
  (Guitar 1)
c#|--------------------------------|
G#|--------------------------------|
E |--------------------------------|--|
B |00-1-0-0-0-0h1h3-00-4-00-1h3----|  |
F#|00-1-0-0-0-0h1h3-00-4-00-1h3----|  |
B |00---0---0-0h1h3-00-4-00-1h3----|  |
   ..   .   .       ..   ..           |
                                      |-(x3)
  (Guitar 2)                          |
c#|--------------------------------|  |
G#|--------------------------------|  |
E |--------------------------------|  |
B |00-1-0-0-0-0h1h3-00-4-00-1h3----|--|
F#|00-1-0-0-0-0h1h3-00-4-00-1h3----|
B |00---0---0-0h1h3-00-4-00-1h3----|
   ..   .   .       ..   ..

  0:38-0:40
  (Guitar 1)
c#|--------------------------------|
G#|--------------------------------|
E |--------------------------------|
B |00-1-0-0-000------00000---------|
F#|00-1-0-0-000------00000---------|
B |00---0---000------00000---------|
   ..   .   ...      .....

  (Guitar 2)
c#|--------------------------------|
G#|--------------------------------|
E |--------------------------------|
B |00-1-0-0-000--000---------------|
F#|00-1-0-0-000--000---------------|
B |00---0---000--000---------------|
   ..   .   ...  ...

  0:40-0:48
  (Guitar 1)
c#|--------------------------------|
G#|--------------------------------|
E |--------------------------------|--|
B |00-1-0-0-0-0h1h3-00-4-00-1h3----|  |
F#|00-1-0-0-0-0h1h3-00-4-00-1h3----|  |
B |00---0---0-0h1h3-00-4-00-1h3----|  |
   ..   .   .       ..   ..           |
                                      |-(x3)
  (Guitar 2)                          |
c#|--------------------------------|  |
G#|--------------------------------|  |
E |--------------------------------|  |
B |00-1-0-0-0-0h1h3-00-4-00-1h3----|--|
F#|00-1-0-0-0-0h1h3-00-4-00-1h3----|
B |00---0---0-0h1h3-00-4-00-1h3----|
   ..   .   .       ..   ..

  0:48-0:52
  (Guitar 1)
c#|----------------------------------------|
G#|----------------------------------------|
E |----------------------------------------|
B |00-1-0-0-000--431-431-01----------------|
F#|00-1-0-0-000--431-431-01----------------|
B |00---0---000--431-431-01----------------|
   ..   .   ...  ... ... ..

  (Guitar 2)
c#|----------------------------------------|
G#|----------------------------------------|
E |----------------------------------------|
B |00-1-0-0-000--------------431-431-01----|
F#|00-1-0-0-000--------------431-431-01----|
B |00---0---000--------------431-431-01----|
   ..   .   ...              ... ... ..

  0:52-1:10
  (Guitar 1)
c#|--------------------------------|
G#|--------------------------------|
E |--------------------------------|--|
B |00-1-0-0-0-0h1h3-00-4-00-1h3----|  |
F#|00-1-0-0-0-0h1h3-00-4-00-1h3----|  |
B |00---0---0-0h1h3-00-4-00-1h3----|  |
   ..   .   .       ..   ..           |
                                      |
  (Guitar 2)                          |
c#|--------------------------------|  |
G#|--------------------------------|  |
E |--------------------------------|  |
B |00---00---------------00--------|  |
F#|00---00---------------00--------|  |
B |00---00---------------00--------|  |
   ..   ..               ..           |
                                      |-(x3)
  (Guitar 1)                          |
c#|--------------------------------|  |
G#|--------------------------------|  |
E |--------------------------------|  |
B |00-1-0-0-0-0h1h3-00-4-00-1h3----|  |
F#|00-1-0-0-0-0h1h3-00-4-00-1h3----|  |
B |00---0---0-0h1h3-00-4-00-1h3----|  |
   ..   .   .       ..   ..           |
                                      |
  (Guitar 2)                          |
c#|--------------------------------|  |
G#|--------------------------------|  |
E |--------------------------------|  |
B |00---00----------000------------|--|
F#|00---00----------000---*--------|
B |00---00----------000---3~~~-----|
   ..   ..          ...

  1:10-1:19
  (Guitar 1)
c#|--------------------------------|
G#|--------------------------------|
E |--------------------------------|
B |--0-0---00--00----00--00--0~~~--|
F#|--0-0---00--00----00--00--0~~~--|
B |--0-0---00--00----00--00--0~~~--|
     . .   ..  ..    ..  ..  

  (Guitar 2)
c#|--------------------------------|
G#|--------------------------------|
E |--------------------------------|
B |00-0--00--00--00--00--00--0~~~--|
F#|00-0--00--00--00--00--00--0~~~--|
B |00-0--00--00--00--00--00--0~~~--|
   .. .  ..  ..  ..  ..  ..

  1:19-1:36
  (Guitar 1)
c#|-----------------------------------------------------|
G#|-----------------------------------------------------|
E |-----------------------------------------------------|--|
B |0-0-0-0-----0-0-0-0---0-0---0-0-0-0------------------|  |
F#|0-0-0-0-----0-0-0-0---0-0---0-0-0-0-----------3-4----|  |
B |0-0-0-0-1-4-0-0-0-0-1-0-0-1-0-0-0-0-1-4--1-4---------|  |
   . . . . t t . . . .   . .   . . . . t t  t t  t t       |
                                                           |-(x4)
  (Guitar 2)                                               |
c#|-----------------------------------------------------|  |
G#|-----------------------------------------------------|  |
E |-----------------------------------------------------|  |
B |0-0-0-0-----0-0-0-0---0-0---0-0-0-0------------------|--|
F#|0-0-0-0-----0-0-0-0---0-0---0-0-0-0-----------3-4----|
B |0-0-0-0-1-4-0-0-0-0-1-0-0-1-0-0-0-0-1-4--1-4---------|
   . . . . t t . . . .   . .   . . . . t t  t t  t t

  1:36-1:38
  (Guitar 1)
c#|-------------------------------|
G#|-------------------------------|
E |-------------------------------|
B |9p8----8p7----7p6----6p5-------|
F#|---7\6----6\5----5\4----4\3----|
B |-------------------------------|
      . .    . .    . .    . .

  (Guitar 2)
c#|-------------------------------|
G#|-------------------------------|
E |-------------------------------|
B |9p8----8p7----7p6----6p5-------|
F#|---7\6----6\5----5\4----4\3----|
B |-------------------------------|
      . .    . .    . .    . .

  1:38-1:47
  (Guitar 1)
c#|-----------------------------------|
G#|-----------------------------------|  
E |-----------------------------------|--|
B |000-00-0-3~~-00-00--2-2~~-0-3~~----|  |
F#|000-00-0-1~~-00-00--0-0~~-0-3~~----|  |
B |000-00-0-----00-00--------0--------|  |
   ... .. .     .. ..        .           |
                                         |-(x2)
  (Guitar 2)                             |
c#|-----------------------------------|  |
G#|-----------------------------------|  |
E |-----------------------------------|  |
B |000-00-0-3~~-00-00--2-2~~-0-3~~----|--|
F#|000-00-0-1~~-00-00--0-0~~-0-3~~----|
B |000-00-0-----00-00--------0--------|
   ... .. .     .. ..        .

  1:47-1:50
  (Guitar 1)
c#|-----------------------------------|
G#|-----------------------------------|
E |-----------------------------------|
B |111111-----111111-----111111-------|
F#|111111-----111111-----111111-------|
B |111111-----111111-----111111-------|
   ......     ......     ...... 

  (Guitar 2)
c#|-----------------------------------|
G#|-----------------------------------|
E |-----------------------------------|
B |111111-----111111-----111111-------|
F#|111111-----111111-----111111-------|
B |111111-----111111-----111111-------|
   ......     ......     ...... 

  1:50-2:00
  (Guitar 1)
c#|-------------------------------------------|
G#|-------------------------------------------|
E |-------------------------------------------|--|
B |0------------------------------------------|  |
F#|0------------------------------------------|  |
B |0--000000000---0---0-0-0---000000000000----|  |
   .                                             |
                                                 |-(x2)
  (Guitar 2)                                     |
c#|-------------------------------------------|  |
G#|-------------------------------------------|  |
E |-------------------------------------------|  |
B |0--000000000---0---0-0-0---000000000000----|--|
F#|0--000000000---0---0-0-0---000000000000----|
B |0--000000000---0---0-0-0---000000000000----|
   .  .........   .   . . .   ............

  2:00-2:09
  (Guitar 1)                                     
c#|-------------------------------------------|  
G#|-------------------------------------------|  
E |-------------------------------------------|
B |-------------------------------------------|
F#|-------------------------------------------|
B |0-0-0-0-0-0-0-0-0-0-0-0-0-0-0-0-0-0-0-0----|   

  (Guitar 2)                                     
c#|-------------------------------------------|  
G#|-------------------------------------------|  
E |-------------------------------------------|
B |0--000000000---0---0-0-0---000000000000----|
F#|0--000000000---0---0-0-0---000000000000----|
B |0--000000000---0---0-0-0---000000000000----|
   .  .........   .   . . .   ............

  (Guitar 1)                                     
c#|-------------------------------------------|  
G#|-------------------------------------------|  
E |---------------------------(Pick Slide)----|
B |------------------------/////////|\\\\\\\\\|
F#|------------------------/////////|\\\\\\\\\|
B |0-0-0-0-0-0-0-0-0-0-0-0-/////////|\\\\\\\\\|

  (Guitar 2)                                     
c#|-------------------------------------------|  
G#|-------------------------------------------|  
E |-------------------------------------------|
B |0--000000000---0---0-0-0---000000000000----|
F#|0--000000000---0---0-0-0---000000000000----|
B |0--000000000---0---0-0-0---000000000000----|
   .  .........   .   . . .   ............

  2:09-2:22
  (Guitar 1)
c#|-----------------------------------|
G#|-----------------------------------|  
E |-----------------------------------|--|
B |000-00-0-3~~-00-00--2-2~~-0-3~~----|  |
F#|000-00-0-1~~-00-00--0-0~~-0-3~~----|  |
B |000-00-0-----00-00--------0--------|  |
   ... .. .     .. ..        .           |
                                         |-(x3)
  (Guitar 2)                             |
c#|-----------------------------------|  |
G#|-----------------------------------|  |
E |-----------------------------------|  |
B |000-00-0-3~~-00-00--2-2~~-0-3~~----|--|
F#|000-00-0-1~~-00-00--0-0~~-0-3~~----|
B |000-00-0-----00-00--------0--------|
   ... .. .     .. ..        .

  2:22-2:26
  (Guitar 1)
c#|--------------------------|
G#|--------------------------|
E |--------------------------|
B |000--00--00---0000--00----|
F#|000--00--00---0000--00----|
B |000--00--00---0000--00----|
   ...  ..  ..   ....  ..

  (Guitar 2)
c#|--------------------------|
G#|--------------------------|
E |--------------------------|
B |000--00--00---0000--00----|
F#|000--00--00---0000--00----|
B |000--00--00---0000--00----|
   ...  ..  ..   ....  ..

  2:26-2:43
  (Guitar 1)
c#|-----------------------------------------------------|
G#|-----------------------------------------------------|
E |-----------------------------------------------------|--|
B |0-0-0-0-----0-0-0-0---0-0---0-0-0-0------------------|  |
F#|0-0-0-0-----0-0-0-0---0-0---0-0-0-0-----------3-4----|  |
B |0-0-0-0-1-4-0-0-0-0-1-0-0-1-0-0-0-0-1-4--1-4---------|  |
   . . . . t t . . . .   . .   . . . . t t  t t  t t       |
                                                           |-(x4)
  (Guitar 2)                                               |
c#|-----------------------------------------------------|  |
G#|-----------------------------------------------------|  |
E |-----------------------------------------------------|  |
B |0-0-0-0-----0-0-0-0---0-0---0-0-0-0------------------|--|
F#|0-0-0-0-----0-0-0-0---0-0---0-0-0-0-----------3-4----|
B |0-0-0-0-1-4-0-0-0-0-1-0-0-1-0-0-0-0-1-4--1-4---------|
   . . . . t t . . . .   . .   . . . . t t  t t  t t

  2:43-2:45
  (Guitar 1)
c#|-------------------------------|
G#|-------------------------------|
E |-------------------------------|
B |9p8----8p7----7p6----6p5-------|
F#|---7\6----6\5----5\4----4\3----|
B |-------------------------------|
      . .    . .    . .    . .

  (Guitar 2)
c#|-------------------------------|
G#|-------------------------------|
E |-------------------------------|
B |9p8----8p7----7p6----6p5-------|
F#|---7\6----6\5----5\4----4\3----|
B |-------------------------------|
      . .    . .    . .    . .

  2:45-2:56
  (Guitar 1)
c#|----------------------------|
G#|----------------------------|
E |----------------------------|
B |0-0-0-0--0-0~~~~~-0~~~~~----|
F#|0-0-0-0--0-0~~~~~-0~~~~~----|
B |0-0-0-0--0-0~~~~~-0~~~~~----|
   . . . .  .

  (Guitar 2)
c#|----------------------------|
G#|----------------------------|
E |----------------------------|
B |0-0-0-0--0-0~~~~~-0~~~~~----|
F#|0-0-0-0--0-0~~~~~-0~~~~~----|
B |0-0-0-0--0-0~~~~~-0~~~~~----|
   . . . .  .

  2:56-3:05
  (Guitar 1)
c#|----------------------------------------------------------------|
G#|----------------------------------------------------------------|
E |----------------------------------------------------------------|
B |1~-1-1-1-------------------1~-1-1-1-------111-1~~111-2~~1111----|
F#|1~-1-1-1-------------------1~-1-1-1-------111-1~~111-2~~1111----|
B |---0-0-0----------------------0-0-0-------000----000----0000----|
      . . .                      . . .       ...    ...    ....

  (Guitar 2)
c#|----------------------------------------------------------------|
G#|----------------------------------------------------------------|
E |----------------------------------------------------------------|
B |1~-1-1-1--111--1-1-1~-1-1--1~-1-1-1--1~~--111-1~~111-2~~1111----|
F#|1~-1-1-1--111--1-1-1~-1-1--1~-1-1-1--1~~--111-1~~111-2~~1111----|
B |---0-0-0--000--0-0----0-0-----0-0-0--0~~--000----000----0000----|
      . . .  ...  . .    . .     . . .       ...    ...    ....

  3:05-3:40
  (Guitar 1)
c#|----------------------------------------------------------------|
G#|----------------------------------------------------------------|
E |----------------------------------------------------------------|--|
B |1~-1-1-1--111--1-1-1~-1-1--1~-1-1-1--1~~--111-1~~111-2~~1111----|  |
F#|1~-1-1-1--111--1-1-1~-1-1--1~-1-1-1--1~~--111-1~~111-2~~1111----|  |
B |---0-0-0--000--0-0----0-0-----0-0-0--0~~--000----000----0000----|  |
      . . .  ...  . .    . .     . . .       ...    ...    ....       |
                                                                      |-(x4)
  (Guitar 2)                                                          |
c#|----------------------------------------------------------------|  |
G#|----------------------------------------------------------------|  |
E |----------------------------------------------------------------|  |
B |1~-1-1-1--111--1-1-1~-1-1--1~-1-1-1--1~~--111-1~~111-2~~1111----|--|
F#|1~-1-1-1--111--1-1-1~-1-1--1~-1-1-1--1~~--111-1~~111-2~~1111----|
B |---0-0-0--000--0-0----0-0-----0-0-0--0~~--000----000----0000----|
      . . .  ...  . .    . .     . . .       ...    ...    ....

  3:40-3:42
  (Guitar 1)
c#|---------------------|
G#|---------------------|
E |---------------------|
B |1~-1-1--1--1~~~~~----|
F#|1~-1-1--1--1~~~~~----|
B |---0-0--0--0~~~~~----|
      . .  .

  (Guitar 2)
c#|---------------------|
G#|---------------------|
E |---------------------|
B |1~-1-1--1--1~~~~~----|
F#|1~-1-1--1--1~~~~~----|
B |---0-0--0--0~~~~~----|
      . .  .

            
            
Suggest correction
Creating personal tab
Creating personal tab
You can edit any tab online and save it as your Personal.

You can edit, replace or remove any tab part or add personal notes – all changes will be seen only by you.

Personal tabs can be accessed anytime from any device, even offline.
Learn more »
comments
print report bad tab
5 comments total. Showing first comments.
0 reply
XxXdarkXxX 10 Apr 02, 2008 01:54 PM

sounds almost dead on dude
nice ****in job

0 reply
S6O6B6 10 Apr 02, 2008 09:27 PM

Hey thanks for sending me the message that you tabbed this. Now i just gotta take the time to sit down and leatn it.lol But Thanks for tabbing it. Pe@ce

+3 reply
vexor7 10 Jan 29, 2010 08:36 AM

Needs more cowbell lol
Great tab though

guest
You may want to rate the tab now too:
select rating
Wanna post a correction for this tab? Suggest correction