Oops, an error
Loading. Please wait.

Called Me Higher tab

1,711 views 12 this week
no commentswrite comment
1 2 3 4 5
1 last vote to show rating
add to favorites
×
Save as Personal and add changes to this tab that will be seen only by you. Learn more ›
×
You can save this tab as Personal to edit and correct it or add notes. All changes will be seen only by you. Learn more »
launch autoscroll
font size
0
reset
how to read this tab
guitar tuner
edit
Autoscroll
slow
fast
+/-
esc
set tempo
stop
Capo 6 (capo 7 live)
(Electric: no capo)


[INTRO]
                                     x2
e|-----------------------------------||
B|-----------------------------------||
G|-------0-------0-------0-------0-o-||
D|---0-------0-------0-------0-----o-||
A|-----------------------------------||
E|-3---3---3---3---3---3---3---3-----||
   1 e + a 2 e + a 3 e + a 4 e + a


[VERSE 1]

                                     x2                                     x2
e|-----------------------------------||-------------------------------------||
B|-----------------------------------||-------------------------------------||
G|-------0-------0-------0-------0-o-||-o-------0-------0-------0-------0-o-||
D|---0-------0-------0-------0-----o-||-o---0-------0-------0-------0-----o-||
A|-----------------------------------||---3---3---3---3---3---3---3---3-----||
E|-3---3---3---3---3---3---3---3-----||-------------------------------------||
   1 e + a 2 e + a 3 e + a 4 e + a        1 e + a 2 e + a 3 e + a 4 e + a

(again)
                                     x2                                     x2
e|-----------------------------------||-------------------------------------||
B|-----------------------------------||-------------------------------------||
G|-------0-------0-------0-------0-o-||-o-------0-------0-------0-------0-o-||
D|---0-------0-------0-------0-----o-||-o---0-------0-------0-------0-----o-||
A|-----------------------------------||---3---3---3---3---3---3---3---3-----||
E|-3---3---3---3---3---3---3---3-----||-------------------------------------||
   1 e + a 2 e + a 3 e + a 4 e + a        1 e + a 2 e + a 3 e + a 4 e + a


[INTERLUDE 1] () = melody notes, either on same guitar or a different one

                                     x2
e|-----------------------------------||-----------------------------------|---------------------------------|
B|------(3)-----(0)------------------||-----------------------------------|---------------------------------|
G|-------0-------0------(0)------0-o-||-o-------0-------0-------0-------0-|-------0-------2-------0-------0-|
D|---0-------0-------0-------0-----o-||-o---0-------0-------0-------0-----|---0-------0-------0-------0-----|
A|-----------------------------------||---3---3---3---3---3---3---3---3---|-3---3---3---3---3---3---3---3---|
E|-3---3---3---3---3---3---3---3-----||-----------------------------------|---------------------------------|
   1 e + a 2 e + a 3 e + a 4 e + a        1 e + a 2 e + a 3 e + a 4 e + a   1 e + a 2 e + a 3 e + a 4 e + a


[VERSE 2] (as [VERSE 1])

                                     x2                                     x2
e|-----------------------------------||-------------------------------------||
B|-----------------------------------||-------------------------------------||
G|-------0-------0-------0-------0-o-||-o-------0-------0-------0-------0-o-||
D|---0-------0-------0-------0-----o-||-o---0-------0-------0-------0-----o-||
A|-----------------------------------||---3---3---3---3---3---3---3---3-----||
E|-3---3---3---3---3---3---3---3-----||-------------------------------------||
   1 e + a 2 e + a 3 e + a 4 e + a        1 e + a 2 e + a 3 e + a 4 e + a

(again)
                                     x2                                     x2
e|-----------------------------------||-------------------------------------||
B|-----------------------------------||-------------------------------------||
G|-------0-------0-------0-------0-o-||-o-------0-------0-------0-------0-o-||
D|---0-------0-------0-------0-----o-||-o---0-------0-------0-------0-----o-||
A|-----------------------------------||---3---3---3---3---3---3---3---3-----||
E|-3---3---3---3---3---3---3---3-----||-------------------------------------||
   1 e + a 2 e + a 3 e + a 4 e + a        1 e + a 2 e + a 3 e + a 4 e + a

Electric:
"I could      be  safe..."
e|---------------------------------|
B|-------------6---6~~~~~~~~~~~~~~-|
G|---------------------------------|
D|---------------------------------|
A|---------------------------------|
E|---------------------------------|
   1 e + a 2 e + a 3 e + a 4 e + a


[CHORUS]
    Em7
But You have called me higher
G
You have called me deeper
         C
And I'll go where You will lead me Lord
Em7
You have called me higher
G
You have called me deeper
         C
And I'll go where You lead me Lord

Where You lead me...


[INTERLUDE 2]


Electric:
                                     x2
e|-----------------------------------||----|----|
B|-------------6---6~~~~~~~~~~~~~~---||----|----|
G|---------6h8---------------------o-||----|----|
D|---------------------------------o-||----|----|
A|-----------------------------------||----|----|
E|-----------------------------------||----|----|
   1 e + a 2 e + a 3 e + a 4 e + a

Acoustic:
                                     x2                                     x2
e|-----------------------------------||-------------------------------------||
B|-------0-------3-------------------||-----------------3-------0-----------||
G|-----------------------0-------0-o-||-o-------0-----------------------0-o-||
D|---0-------0-------0-------0-----o-||-o---0-------0-------0-------0-----o-||
A|-----------------------------------||---3---3---3---3---3---3---3---3-----||
E|-3---3---3---3---3---3---3---3-----||-------------------------------------||
   1 e + a 2 e + a 3 e + a 4 e + a        1 e + a 2 e + a 3 e + a 4 e + a


[VERSE 3]

                                     x2                                     x2
e|-----------------------------------||-------------------------------------||
B|-----------------------------------||-------------------------------------||
G|-------0-------0-------0-------0-o-||-o-------0-------0-------0-------0-o-||
D|---0-------0-------0-------0-----o-||-o---0-------0-------0-------0-----o-||
A|-----------------------------------||---3---3---3---3---3---3---3---3-----||
E|-3---3---3---3---3---3---3---3-----||-------------------------------------||
   1 e + a 2 e + a 3 e + a 4 e + a        1 e + a 2 e + a 3 e + a 4 e + a


(add electric)
                                     x2                                     x2
e|-----------------------------------||-------------------------------------||
B|-------3---------------------------||---------3---------------------------||
G|---------------0-------0-------0-o-||-o---------------0-------0-------0-o-||
D|---0-------0-------0-------0-----o-||-o---0-------0-------0-------0-----o-||
A|-----------------------------------||---3---3---3---3---3---3---3---3-----||
E|-3---3---3---3---3---3---3---3-----||-------------------------------------||
   1 e + a 2 e + a 3 e + a 4 e + a        1 e + a 2 e + a 3 e + a 4 e + a


Electric:
                                     x2
e|-----------------------------------||----|----|
B|-------------6---6~~~~~~~~~~~~~~---||----|----|
G|---------6h8---------------------o-||----|----|
D|---------------------------------o-||----|----|
A|-----------------------------------||----|----|
E|-----------------------------------||----|----|
   1 e + a 2 e + a 3 e + a 4 e + a


[CHORUS 2]

e|---------------------------------|---------------------------------|
B|---------------------------------|---------------------------------|
G|-------0-------0-------0-------0-|-------0-------0-------0-------0-|
D|---2-------2-------2-------2-----|---0-------0-------0-------0-----|
A|---------------------------------|---------------------------------|
E|-0---0---0---0---0---0---0---0---|-3---3---3---3---3---3---3---3---|
   1 e + a 2 e + a 3 e + a 4 e + a   1 e + a 2 e + a 3 e + a 4 e + a

e|---------------------------------|---------------------------------|
B|---------------------------------|-------1-------------------------|
G|-------0-------0-------0-------0-|---------------0-------0-------0-|
D|---2-------2-------2-------2-----|---2-------2-------2-------2-----|
A|-3---3---3---3---3---3---3---3---|-3---3---3---3---3---3---3---3---|
E|---------------------------------|---------------------------------|
   1 e + a 2 e + a 3 e + a 4 e + a   1 e + a 2 e + a 3 e + a 4 e + a

e|---------------------------------|---------------------------------|
B|-------0-------------------------|-------0-------------------------|
G|---------------0-------0-------0-|---------------0-------0-------0-|
D|---2-------2-------2-------2-----|---0-------0-------0-------0-----|
A|---------------------------------|---------------------------------|
E|-0---0---0---0---0---0---0---0---|-3---3---3---3---3---3---3---3---|
   1 e + a 2 e + a 3 e + a 4 e + a   1 e + a 2 e + a 3 e + a 4 e + a

e|---------------------------------|---------------------------------|
B|-------1-------------------------|-------1-------------------------|
G|---------------0-------0-------0-|---------------0-------0-------0-|
D|---2-------2-------2-------2-----|---2-------2-------2-------2-----|
A|-3---3---3---3---3---3---3---3---|-3---3---3---3---3---3---3---3---|
E|---------------------------------|---------------------------------|
   1 e + a 2 e + a 3 e + a 4 e + a   1 e + a 2 e + a 3 e + a 4 e + a


[INTERLUDE 3] (variation of [INTERLUDE 2])

Electric:

e|---------------------------------|---------------------------------|----|----|
B|-------------6---6~~~~~~~~~~~~~--|-------------6---7-------6-\-2---|----|----|
G|---------6h8---------------------|---------6h8---------------------|----|----|
D|---------------------------------|---------------------------------|----|----|
A|---------------------------------|---------------------------------|----|----|
E|---------------------------------|---------------------------------|----|----|
   1 e + a 2 e + a 3 e + a 4 e + a   1 e + a 2 e + a 3 e + a 4 e + a

Acoustic:
                                     x2                                     x2
e|-----------------------------------||-------------------------------------||
B|-------3-------0-------------------||---------3-------0-------------------||
G|-----------------------2-------0-o-||-o-----------------------2-------0-o-||
D|---0-------0-------0-------0-----o-||-o---0-------0-------0-------0-----o-||
A|-----------------------------------||---3---3---3---3---3---3---3---3-----||
E|-3---3---3---3---3---3---3---3-----||-------------------------------------||
   1 e + a 2 e + a 3 e + a 4 e + a        1 e + a 2 e + a 3 e + a 4 e + a


[BRIDGE]

e|---------------------------------|---------------------------------|-------|-------|
B|-------1-------1-------1-------1-|-------1-------1-------1-------1-|-------|-------|
G|---------------------------------|---------------------------------|-------|-------|
D|---2-------2-------2-------2-----|---2-------2-------2-------2-----|-------|-------|
A|-0---0---0---0---0---0---0---0---|-3---3---3---3---3---3---3---3---|-------|-------|
E|---------------------------------|---------------------------------|-3-----|-------|
   1 e + a 2 e + a 3 e + a 4 e + a   1 e + a 2 e + a 3 e + a 4 e + a

(piano)
Am7
   I will be Yours, oh
C
   I will be Yours for all my...


e|---------------------------------|---------------------------------|
B|---------------3-------0---------|---------------------------------|
G|-------0-----------------------0-|-------0-------2-------0-------0-|
D|---0-------0-------0-------0-----|---0-------0-------0-------0-----|
A|---------------------------------|---------------------------------|
E|-3---3---3---3---3---3---3---3---|-3---3---3---3---3---3---3---3---|
   1 e + a 2 e + a 3 e + a 4 e + a   1 e + a 2 e + a 3 e + a 4 e + a

(second time around)

e|---------------------------------|---------------------------------|
B|---------------1-----------------|---------------1-----------------|
G|-------2---------------2-------2-|-------0---------------0-------0-|
D|---2-------2-------2-------2-----|---2-------2-------2-------2-----|
A|-0---0---0---0---0---0---0---0---|-3---3---3---3---3---3---3---3---|
E|---------------------------------|---------------------------------|
   1 e + a 2 e + a 3 e + a 4 e + a   1 e + a 2 e + a 3 e + a 4 e + a

e|---------------------------------|---------------------------------|
B|---------------------------------|---------------0-----------------|
G|-------0-------0-------0-------0-|-------0---------------0-------0-|
D|---0-------0-------0-------0-----|---0-------0-------0-------0-----|
A|---------------------------------|---------------------------------|
E|-3---3---3---3---3---3---3---3---|-3---3---3---3---3---3---3---3---|
   1 e + a 2 e + a 3 e + a 4 e + a   1 e + a 2 e + a 3 e + a 4 e + a

e|---------------------------------|---------------------------------|
B|---------------1-----------------|---------------1-----------------|
G|-------2---------------2-------2-|-------0---------------0-------0-|
D|---2-------2-------2-------2-----|---2-------2-------2-------2-----|
A|-0---0---0---0---0---0---0---0---|-3---3---3---3---3---3---3---3---|
E|---------------------------------|---------------------------------|
   1 e + a 2 e + a 3 e + a 4 e + a   1 e + a 2 e + a 3 e + a 4 e + a

e|---------------------------------|---------------------------------|
B|---------------0-----------------|---------------0-----------------|
G|-------0---------------0-------0-|-------0---------------0-------0-|
D|---0-------0-------0-------0-----|---0-------0-------0-------0-----|
A|---------------------------------|---------------------------------|
E|-3---3---3---3---3---3---3---3---|-3---3---3---3---3---3---3---3---|
   1 e + a 2 e + a 3 e + a 4 e + a   1 e + a 2 e + a 3 e + a 4 e + a


[FINAL CHORUS]

(you can do variations)

e|---------------------------------|---------------------------------|
B|---------------------------------|---------------------------------|
G|-------0-------0-------0-------0-|-------0-------0-------0-------0-|
D|---2-------2-------2-------0-----|---0-------0-------0-------0-----|
A|---------------------------------|-------------------------2---2---|
E|-0---0---0---0---0---0---2---2---|-3---3---3---3---3---3-----------|
   1 e + a 2 e + a 3 e + a 4 e + a   1 e + a 2 e + a 3 e + a 4 e + a

e|---------------------------------|---------------------------------|
B|---------------1-----------------|---------------------------------| x3
G|-------0---------------0-------0-|-------0-------0-------0-------0-|
D|---2-------2-------2-------2-----|---4-------4-------4-------4-----|
A|-3---3---3---3---3---3---3---3---|-5---5---5---5---5---5---5---5---|
E|---------------------------------|---------------------------------|
   1 e + a 2 e + a 3 e + a 4 e + a   1 e + a 2 e + a 3 e + a 4 e + a

e|---------------------------------|---------------------------------|
B|---------------------------------|---------------------------------|
G|-------0-------0-------0-------0-|-------0-------0-------0-------0-|
D|---2-------2-------2-------0-----|---0-------0-------0-------0-----|
A|---------------------------------|-------------------------2---2---|
E|-0---0---0---0---0---0---2---2---|-3---3---3---3---3---3-----------|
   1 e + a 2 e + a 3 e + a 4 e + a   1 e + a 2 e + a 3 e + a 4 e + a

e|---------------------------------|---------------------------------|
B|---------------1-----------------|---------------------------------|
G|-------0---------------0-------0-|-------0-------0-----------------|
D|---2-------2-------2-------2-----|---4-------4---------------------|
A|-3---3---3---3---3---3---3---3---|-5---5---5---5---5---------------|
E|---------------------------------|---------------------------------|
   1 e + a 2 e + a 3 e + a 4 e + a   1 e + a 2 e + a 3 e + a 4 e + a


[OUTRO]

Electric:

e|---------------------------------|---------------------------------|----|----|
B|-------------6---6~~~~~~~~~~~~~--|-------------6---7-------6---\---|----|----|
G|---------6h8---------------------|---------6h8---------------------|----|----|
D|---------------------------------|---------------------------------|----|----|
A|---------------------------------|---------------------------------|----|----|
E|---------------------------------|---------------------------------|----|----|
   1 e + a 2 e + a 3 e + a 4 e + a   1 e + a 2 e + a 3 e + a 4 e + a

Acoustic:
                                     x2                                     x2
e|-----------------------------------||-------------------------------------||
B|-----------------------------------||-------------------------------------||
G|-------0-------0-------0-------0-o-||-o-------0-------0-------0-------0-o-||
D|---0-------0-------0-------0-----o-||-o---0-------0-------0-------0-----o-||
A|-----------------------------------||---3---3---3---3---3---3---3---3-----||
E|-3---3---3---3---3---3---3---3-----||-------------------------------------||
   1 e + a 2 e + a 3 e + a 4 e + a        1 e + a 2 e + a 3 e + a 4 e + a

(again)

Electric:

e|---------------------------------|---------------------------------|----|----|
B|-------------6---6~~~~~~~~~~~~~--|-------------6---7-------6---\---|-3--|----|
G|---------6h8---------------------|---------6h8---------------------|----|----|
D|---------------------------------|---------------------------------|----|----|
A|---------------------------------|---------------------------------|----|----|
E|---------------------------------|---------------------------------|----|----|
   1 e + a 2 e + a 3 e + a 4 e + a   1 e + a 2 e + a 3 e + a 4 e + a

Acoustic:
                                     x2                                     x2
e|-----------------------------------||-------------------------------------||----|
B|-----------------------------------||-------------------------------------||----|
G|-------0-------0-------0-------0-o-||-o-------0-------0-------0---------o-||-0--|
D|---0-------0-------0-------0-----o-||-o---0-------0-------0-------0-----o-||-0--|
A|-----------------------------------||---3---3---3---3---3---3---3---3p2---||-2--|
E|-3---3---3---3---3---3---3---3-----||-------------------------------------||-3--|
   1 e + a 2 e + a 3 e + a 4 e + a        1 e + a 2 e + a 3 e + a 4 e + a


************************************

| h   Hammer-on
| p   Pull-off
| ~   Vibrato
| \   Slide down

************************************

            
            
Suggest correction
Creating personal tab
Creating personal tab
You can edit any tab online and save it as your Personal.

You can edit, replace or remove any tab part or add personal notes – all changes will be seen only by you.

Personal tabs can be accessed anytime from any device, even offline.
Learn more »
Give kudos to tab author, rate the tab!
1 2 3 4 5
comments
print report bad tab
guest
You may want to rate the tab now too:
select rating
Wanna post a correction for this tab? Suggest correction