Oops, an error
Loading. Please wait.

A Song For The Hopeless Bass Tab

version 1
version 1

Whole song

Interactive

1,655 views 1 this week
no commentswrite comment
1 2 3 4 5
3 more votes to show rating
add to favorites
launch autoscroll
font size
0
reset
guitar tuner
Autoscroll
slow
fast
+/-
esc
set tempo
stop
Help us to improve Ultimate-Guitar.com Take our survey!
×
Author
Difficulty
Tuning
intermediate
C F A# D# G C
-----------------------------------------------------------------------------
	          A SONG FOR THE HOPELESS - All That Remains
-----------------------------------------------------------------------------

Tabbed By : execution_666


Tuning: C#F#BE

Intro: 0:00 - 0:47 [These are the root notes to play - I don't think the bass
is actually playing, but it is optional]
|------------------|
|------------------|x8
|-2~---0~----------|
|----------0~------|


Pre-Chorus: 0:48 - 1:10 (Not Exact Rhythm)
|---------------------------------------------------|
|---------------------------------------------------|x3
|---------------------------------------------------|
|-0-222222--22--2222222-3-3--0-000--000-0000000-----|

|---------------------------------------------------|
|---------------------------------------------------|
|-------------------------------------2---4---5-----|
|-0-222222--22--2222222-3-3--0-0000-0---0---0-------|

Chorus: 1:10 - 1:20 (Not Exact Rhythm)
|------------------------------|
|------------------------------|x2
|-2-222222--0-000000-----------|
|--------------------0-000000--|


Verse: 1:20 - 1:51 (Listen VERY closely for that second part, if you don't
hear it, just play the first part over and over and ignore the second part)
|------------------------------------|
|------------------------------------|
|-2~--0~-------2~--0~----5-5/9-7-5---|
|---------0~----------0--------------|


Pre-Chorus: 1:51 - 2:12 (Not Exact Rhythm)
|---------------------------------------------------|
|---------------------------------------------------|x3
|---------------------------------------------------|
|-0-222222--22--2222222-3-3--0-000--000-0000000-----|

|---------------------------------------------------|
|---------------------------------------------------|
|-------------------------------------2---4---5-----|
|-0-222222--22--2222222-3-3--0-0000-0---0---0-------|

Chorus: 2:12 - 2:33 (Not Exact Rhythm)
|------------------------------|
|------------------------------|x2
|-2-222222--0-000000-----------|
|--------------------0-000000--|

Solo: 2:33 - 2:54 (Not Exact Rhythm)
|---------------------------------------------------|
|---------------------------------------------------|x4
|---------------------------------------------------|
|-0-222222--22--2222222-3-3--0-000--000-0000000-----|

Verse: 2:54 - 3:15 (Go with the flow basically)
|--------------| 
|--------------|
|-2~--0~-------|
|---------0~---| 

|--------------------| 
|--------------------|
|-2~--0~-------------|
|---------00000000---|


Chorus: 3:12 - 3:33 (Not Exact Rhythm)
|------------------------------|
|------------------------------|
|-2-222222--0-000000-----------|
|--------------------0-000000--|

Outro Solo: 3:33 - 3:56 
|------------------------------|
|------------------------------|
|-2-222222--0-000000-----------|
|--------------------0-000000--|

End: 3:57 - End
|------------------------|
|------------------------|
|-2-222222--0-000000-----|
|--------------------0~--|

There you go. I couldn't find a single bass tab for this. So I stepped up.
Rhythm you have to listen for. Enjoy. 

| /  slide up
| \  slide down
| h  hammer-on
| p  pull-off
| ~  vibrato
| +  harmonic
| x  Mute note
=============================================================================
Suggest correction
Give kudos to tab author, rate the tab!
1 2 3 4 5
comments
print report bad tab
guest
You may want to rate the tab now too:
select rating
Wanna post a correction for this tab? Suggest correction