Oops, an error
Loading. Please wait.

A Song For The Hopeless Tab

version 1
version 1

Whole song

Interactive

1,555 views 9 this week
no commentswrite comment
1 2 3 4 5
accurate
x 4
add to favorites
launch autoscroll
font size
0
reset
how to read this tab
guitar tuner
Tab Pro tools
  • play this tab
  • loop segment
  • change instrument
  • show fretboard
  • metronome
×
Best way to learn
"A Song For The Hopeless"
Autoscroll
slow
fast
+/-
esc
set tempo
stop
Contributor
Difficulty
intermediate
Tuning: C# Standard.

Intro, Guitar 1, clean:
c#|---------2---------------0-----------------------5-----2-----0---|
G#|-------3---3-----------3---3-------------3---------3-----3-----3-|
E |-----4-------4-------4-------4---------0---0---------0-----0-----|
B |---4-----------4---4-----------4-----4-------4-------------------| (x7)
F#|-2---------------0-----------------2-----------2-----------------|
C#|---------------------------------0-------------------------------|


c#|---------2---------------0-------2-------------------------------|
G#|-------3---3-----------3---3-----3-------------------------------|
E |-----4-------4-------4-------4---4-------------------------------|
B |---4-----------4---4-----------4-4-------------------------------|
F#|-2---------------0---------------2-------------------------------|
C#|-----------------------------------------------------------------|

Intro solo, Guitar 2, distortion:
(Starts after the third time you play the first clean part)
c#|-----------------------------------------------------------------|
G#|-----------------------------------------------------------------|
E |-/6-6/7-7/9-11/12-14/16------------------------------------------|
B |------------------------14/15------------------------------------|
F#|------------------------------14~--------------------------------|
C#|-----------------------------------------------------------------|


c#|-------------------------------------------------21b-19-15-12----|
G#|-17b19-15h17-17b19-17b19-15h17-17b19-15h17p15h17-----------------|
E |-----------------------------------------------------------------|
B |-----------------------------------------------------------------|
F#|-----------------------------------------------------------------|
C#|-----------------------------------------------------------------|

(The song continues through the soft part)

c#|-----------------------------------------------------------------|
G#|-----------------------------------------------------------------|
E |-----------------------------------------------------------------|
B |-2--4---------4------------------4-----2---------------------2---|
F#|-2--4---------4------------------4-1/2-2---------------------2---|
C#|-0--2-2-2-2-2-2--2-2-2-2-2-2-2-2-2-2/3-0-000-000-000-0-0-0-0-0---| (x3)


c#|-----------------------------------------------------------------|
G#|-----------------------------------------------------------------|
E |-----------------------------------------------------------------|
B |-2--4---------4------------------4-----2-------------------------|
F#|-2--4---------4------------------4-1/2-2--------------2-4-5------|
C#|-0--2-2-2-2-2-2--2-2-2-2-2-2-2-2-2-2/3-0-0-0-0-0-0-0-0-0-0-------|


c#|---------3-2-----------5-----------------------------------------|
G#|-3-3-3-3-----3-2-2-2-2---3-2-0-----------------------------------|
E |-----------------------------------------------------------------|
B |-----------------------------------------------------------------|
F#|-----------------------------------------------------------------|
C#|-----------------------------------------------------------------|
comments
print report bad tab
I want to post or [tab]
guest
You may want to rate the tab now too:
select rating
Please do not post tabs as comments. Select "correction" instead!