Oops, an error
Loading. Please wait.

Air That I Breath Bass Tab

version 1
version 1

Whole song

Interactive

2,994 views 1 this week
4 commentsread comments
1 2 3 4 5
x 3
add to favorites
launch autoscroll
font size
0
reset
guitar tuner
Autoscroll
slow
fast
+/-
esc
set tempo
stop
Help us to improve Ultimate-Guitar.com Take our survey!
×
Author
Difficulty
intermediate
-------------------------------------------------------------------------------
	           air that i breath - all that remains
-------------------------------------------------------------------------------

Tabbed By :demigod_92
e-mail:koruptor69@yahoo.com

this isnt my first bass tab but i think its alitle rong, like the guitar tab for this 
it has many ways to be played. this is the most easy and conveniant way to play it

the timeing on this tab is not correct, it is estamated
its also not 100% correct so please add any corrections

Tuning:D

intro 0:00-0:12
G|---------------------------------------------------------------------------|
D|---------------------------------------------------------------------------|
A|---------------------------------------------------------------------------|
D|-9~~~~~~5~~~~7~~~9~~~~~~5~~~~~7~~~~~---------------------------------------|

0:12 - 0:36
G|---------------------------------------------------------------------------|
D|---------------------------------------------------------------------------|
A|----------------------------------------9-7-5-7----------------------------|
D|-9999-9-7-5-5555-5555-99999-9-7-5-5-7-9------------------------------------|


G|---------------------------------------------------------------------------|
D|---------------------------------------------------------------------------|
A|-----------------------------9-7---9-7---9-7-------------------------------|
D|-9999-9-7-5-5555-5555-7-9999-----9-----9-----9-7---------------------------|

G|---------------------------------------------------------------------------|
D|---------------------------------------------------------------------------|
A|----------------------------------------9-7-5-7----------------------------|
D|-9999-9-7-5-5555-5555-99999-9-7-5-5-7-9------------------------------------|


G|---------------------------------------------------------------------------|
D|---------------------------------------------------------------------------|
A|-----------------------------9-7---9-7---9-7-------------------------------|
D|-9999-9-7-5-5555-5555-7-9999-----9-----9-----9-7---------------------------|

0:36 - 0:48
G|---------------------------------------------------------------------------|
D|----------------------------------5-----4-----5----------------------------|
A|------------------------11-9-7-5--3-0-0-2-0-0-3----------------------------|
D|-11-11-9-11-9-11-7-7-7---------------------------5-7-9---------------------|


G|---------------------------------------------------------------------------|
D|---------------------------------------------------------------------------|
A|----------------------------------11-9-7-5---------------------------------|
D|-9-9-7-9-7-9-555-555-9-9-7-9-7--9------------------------------------------|


G|---------------------------------------------------------------------------|
D|---------------------------------------------------------------------------|
A|---------------------------------------------------------------------------|
D|-9~~~~~~5~~~~7~~~9~~~~~~5~~~~~7~~~~~---------------------------------------|

G|---------------------------------------------------------------------------|
D|---------------------------------------------------------------------------|
A|----------------------11-9-7~-11-9-7-5-------------------------------------|
D|-11~~~11-11-9-9~~~9-9------------------------------------------------------|

G|---------------------------------------------------------------------------|
D|---------------------------------------------------------------------------|
A|----------------------11-9-7~-11-9-7-5-------------------------------------|
D|-11~~~11-11-9-9~~~9-9------------------------------------------------------|

G|---------------------------------------------------------------------------|
D|----------------------------------5-----4-----5----------------------------|
A|------------------------11-9-7-5--3-0-0-2-0-0-3----------------------------|
D|-11-11-9-11-9-11-7-7-7---------------------------5-7-9---------------------|


G|---------------------------------------------------------------------------|
D|---------------------------------------------------------------------------|
A|----------------------------------11-9-7-5---------------------------------|
D|-9-9-7-9-7-9-555-555-9-9-7-9-7--9------------------------------------------|

G|---------------------------------------------------------------------------|
D|----------------------------------5-----4-----5----------------------------|
A|------------------------11-9-7-5--3-0-0-2-0-0-3----------------------------|
D|-11-11-9-11-9-11-7-7-7---------------------------5-7-9---------------------|


G|---------------------------------------------------------------------------|
D|---------------------------------------------------------------------------|
A|----------------------------------11-9-7-5---------------------------------|
D|-9-9-7-9-7-9-555-555-9-9-7-9-7--9------------------------------------------|


G|---------------------------------------------------------------------------|
D|---------------------------------------------------------------------------|
A|----------------------11-9-7~-11-9-7-5-------------------------------------|
D|-11~~~11-11-9-9~~~9-9------------------------------------------------------|

G|---------------------------------------------------------------------------|
D|---------------------------------------------------------------------------|
A|----------------------11-9-7~-11-9-7-5-------------------------------------|
D|-11~~~11-11-9-9~~~9-9------------------------------------------------------|


G|---------------------------------------------------------------------------|
D|---------------------------------------------------------------------------|
A|-2~~~~~~--------0~~~~~~----------------------------------------------------|
D|---------5~~~~~----------2~~~~~~~------------------------------------------|

1:59 - 2:27

G|------------4----------6----------7----------------------------------------|
D|--------0-4-------0-4--------0-4-----5-4-2---------------------------------|
A|--2-2-2--------2----------2-----------------5-4-2--------------------------|
D|---------------------------------------------------------------------------|


G|---------------------------------------------------------------------------|
D|---------------------------------------------------------------------------|
A|-2~~~~~~--------0~~~~~~----------------------------------------------------|
D|---------5~~~~~----------2~~~~~~~------------------------------------------|


G|---------------------------------------------------------------------------|
D|---------------------------------------------------------------------------|
A|-22-2-22-------------0-0-00------------------------------------------------|
D|----------55-55-5-5----------2-2-222---------------------------------------|

G|---------------------------------------------------------------------------|
D|---------------------------------------------------------------------------|
A|----------------------------------------9-7-5-7----------------------------|
D|-9999-9-7-5-5555-5555-99999-9-7-5-5-7-9------------------------------------|


G|---------------------------------------------------------------------------|
D|---------------------------------------------------------------------------|
A|-----------------------------9-7---9-7---9-7-------------------------------|
D|-9999-9-7-5-5555-5555-7-9999-----9-----9-----9-7---------------------------|

G|---------------------------------------------------------------------------|
D|---------------------------------------------------------------------------|
A|---------------------------------------------------------------------------|
D|-11-11-9-11-9-11-7-7-7--7-7-7----------------------------------------------|


G|---------------------------------------------------------------------------|
D|---------------------------------------------------------------------------|
A|----------------------------------11-9-7-5---------------------------------|
D|-9-9-7-9-7-9-555-555-9-9-7-9-7--9------------------------------------------|

| /  slide up
| \  slide down
| h  hammer-on
| p  pull-off
| ~  vibrato
| +  harmonic
| x  Mute note
===============================================================================
Suggest correction
Give kudos to tab author, rate the tab!
1 2 3 4 5
comments
print report bad tab
4 comments total. Showing first comments.
+1 reply
pyrobonez 87 Jan 11, 2008 04:50 PM

Tuning? This song is in D Standard but it looks like you might have tabbed it for Drop D. I didn't look with much detail
but it looks like the intro solo backing is wrong.

-1 reply
BaSSiSt_METAL 105 Mar 06, 2008 04:32 PM

looks good
few minor mistakes
but still really good

+1 reply
Engine 10 Mar 27, 2008 05:15 PM

OK, sorry, but this tab is a disgrace, almost nothing is correct, it may look good but it sounds anything but. It barely even follows the song, some notes are just thrown in randomly after the part ends, don't even bother posting tabs like this, play it before you post.

guest
You may want to rate the tab now too:
select rating
Wanna post a correction for this tab? Suggest correction