Oops, an error
Loading. Please wait.

Air That I Breathe Bass Tab

version 2
version 2

Whole song

Interactive

1,509 views 1 this week
no commentswrite comment
1 2 3 4 5
2 more votes to show rating
add to favorites
launch autoscroll
font size
0
reset
guitar tuner
Autoscroll
slow
fast
+/-
esc
set tempo
stop
Help us to improve Ultimate-Guitar.com Take our survey!
×
Author
this is prettymuch the same as another version on here, but i think its alot easier to 
this way.

you need the bottom 2 strings dropped 2 steps so it's DGDG

intro 0:00-0:14  (x1)
G|--------------------------------------------------------------------------|
D|--------------------------------------------------------------------------|
G|-4~~~~~~0~~~~2~~~4~~~~~~0~~~~~2~~~~~--------------------------------------|
D|--------------------------------------------------------------------------|

0:14 - 0:38 (x2)
G|--------------------------------------------------------------------------|
D|----------------------------------------4-2-0-2---------------------------|
G|-4444-4-2-0-0000-0000-44444-4-2-0-0-2-4-----------------------------------|
D|--------------------------------------------------------------------------|

G|--------------------------------------------------------------------------|
D|-----------------------------4-2---4-2---4-2------------------------------|
G|-4444-4-2-0-0000-0000-2-4444-----4-----4-----4-2--------------------------|
D|--------------------------------------------------------------------------|


0:36 - 0:51 (x2)
G|------------------------------------------------------------------|
D|-------------------4-2-0-2----------------------------------------|
G|-4-4-2-4-2-4-------------------------------------------0-2--------|
D|-------------0-0-0---------3-0-0-2-0-0-3-0-0-2-0-0-2-3------------|

0:51-0:57 (x1)
G|--------------------------------------|
D|--------------------------------------|
G|-4~~~~~~0~~~~2~~~---------------------|
D|--------------------------------------|

0:57-1:09  (x2)
G|--------------------------------------|
D|----------------------4-2-0~-4-2-0-4--|
G|-4~~~4-4-2-2~~~2-2--------------------|
D|--------------------------------------|

G|--------------------------------------|
D|----------------------4-2-0~-4-2-0~---|
G|-4~~~4-4-2-2~~~2-2--------------------|
D|--------------------------------------|

1:09-1:33 (x4)
G|--------------------------------------------------------------------------|
D|----------------------4-2-0-2---------------------------------------------|
G|-4-4-2-4-2-4---------------------------------------------------0-2--------|
D|-------------0-0-0-----------------3-0-0-2-0-0-3-0-0-2-0-0-2-3------------|

Then guitars by them self

Starting back up at 1:39-2:02 (x2)
G|--------------------------------------|
D|----------------------4-2-0~-4-2-0-4--|
G|-4~~~4-4-2-2~~~2-2--------------------|
D|--------------------------------------|

G|--------------------------------------|
D|----------------------4-2-0~-4-2-0~---|
G|-4~~~4-4-2-2~~~2-2--------------------|
D|--------------------------------------|

2:02-2:15 (x2)
G|-----------------------------------------------------------------------|
D|-----------------------------------------------------------------------|
G|-4~~~~~~-------------0~~~~~~-------------------------------------------|
D|-----------------------------------------2~~~~~~-------------4~~~~~~---|

2:16-2-29 (x2)
G|------------4----------6----------7----------------|
D|--------0-4-------0-4--------0-4-----5-4-2---------|
G|--4-4-4--------4----------4-----------------7-6-4--|
D|---------------------------------------------------|


2:30- 2:42 (x2)
G|-----------------------------------------------------------------------|
D|-----------------------------------------------------------------------|
G|-4~~~~~~-------------0~~~~~~-------------------------------------------|
D|-----------------------------------------2~~~~~~-------------4~~~~~~---|

2:43-2:55 (x2)
G|--------------------------------------------------------------------------|
D|--------------------------------------------------------------------------|
G|-44-4-44-------------00-0-00----------------------------------------------|
D|-----------------------------------------22-2-22-------------44-4-44------|

2:56- 3:07 (x1)
G|--------------------------------------------------------------------------|
D|----------------------------------------4-2-0-2---------------------------|
G|-4444-4-2-0-0000-0000-44444-4-2-0-0-2-4-----------------------------------|
D|--------------------------------------------------------------------------|

G|--------------------------------------------------------------------------|
D|-----------------------------4-2---4-2---4-2------------------------------|
G|-4444-4-2-0-0000-0000-2-4444-----4-----4-----4-2--------------------------|
D|--------------------------------------------------------------------------|


3:08-end  (x4)
G|--------------------------------------------------------------------------|
D|--------------------------------------------------------------------------|
G|-4-4-2-4-2-4--------------------------------------------------------------|
D|-------------0-0-0--0-0-0-------------------------------------------------|

G|--------------------------------------------------------------------------|
D|--------------------------------------------------------------------------|
G|-4-4-2-4-2-4-----------0-2------------------------------------------------|
D|-------------0-0-0-2-3----------------------------------------------------|
Except on last time through do this

G|--------------------------------------------------------------------------|
D|--------------------------------------------------------------------------|
G|-4-4-2-4-2-4--------------------------------------------------------------|
D|-------------0-0-0--0-0-0-------------------------------------------------|

G|--------------------------------------------------------------------------|
D|--------------------------------------------------------------------------|
G|-4-4-2-4-2-4\-------------------------------------------------------------|
D|--------------------------------------------------------------------------|
Suggest correction
Give kudos to tab author, rate the tab!
1 2 3 4 5
comments
print report bad tab
guest
You may want to rate the tab now too:
select rating
Wanna post a correction for this tab? Suggest correction