Oops, an error
Loading. Please wait.

Air That I Breathe Bass Tab

version 3
version 3

Whole song

Interactive

3,206 views 1 this week
no commentswrite comment
1 2 3 4 5
please rate
add to favorites
launch autoscroll
font size
0
reset
guitar tuner
Autoscroll
slow
fast
+/-
esc
set tempo
stop
Help us to improve Ultimate-Guitar.com Take our survey!
×
Author
Difficulty
Tuning
advanced
D G C F A D
-------------------------------------------------------------------------------
		   The Air That I Breathe - All That Remains
-------------------------------------------------------------------------------

Tabbed By : Kergash
e-mail: h_bjerkg@live.no

Tuning: D-Standard

Intro Part 1:
F|---------------------------------------------------------------------------|
C|---------------------------------------------------------------------------|
G|4r----0r----------4r-------0r------2r---4x-----------------------------------|
D|------------2r-------------------------------------------------------------|

Intro Part 2:
F|---------------------------------------------------------------------------|
C|---------------------------------------------------------------------------|
G|44444-4------------------44444-4----------2----44444-4---------------------|
D|--------7-5-00000-00000----------7-5-5-024-45----------7-5-00000-00000-----|

F|---------------------------------------------------------------------------|
C|---------------------------------4-7-6-------------------------------------|
G|-----7-6---7-6---7-6---7-6-4-6-7-------------------------------------------|
D|4444-----4-----4-----4-----------------------------------------------------|x2

Verse:
F|---------------------------------------------------------------------------|
C|---------------2-1---------------------------------------------------------|
G|4-4-2h4-2h4-------4-2-2----------------------------------------------------|
D|-0-0---0----000---------00-2-00-5-00-4-00-0245-----------------------------|x2

Pre-Chorus:
F|---------------------------------------------------------------------------|
C|---------------------------------------------------------------------------|
G|4r-----0r-----2r------4X---------------------------------------------------|
D|---------------------------------------------------------------------------|

Chorus:
F|---------------------------------------------------------------------------|
C|---------------------------------------------------------------------------|
G|4--4--2-2-2---7-6-444------------------------------------------------------|
D|-------------0-0-0---04-02-02-04-------------------------------------------|x2

Verse:
F|---------------------------------------------------------------------------|
C|---------------2-1---------------------------------------------------------|
G|4-4-2h4-2h4-------4-2-2----------------------------------------------------|
D|-0-0---0----000--------00-2-00-5-00-4-00-0245------------------------------|x4

Chorus: (You come in after a little break with only guitars)
F|---------------------------------------------------------------------------|
C|---------------------------------------------------------------------------|
G|4--4--2-2-2---7-6-444------------------------------------------------------|
D|-------------0-0-0---04-02-02-04-------------------------------------------|x4

Bridge: (This part is quite long, it also includes a guitar-solo)
F|---------------------------------------------------------------------------|
C|---------------------------------------------------------------------------|
G|4r-----0r-------------------4r------0r-------------------------------------|
D|--------------2r------4r--------------------2r-------4r--------------------|

F|---------1--------1--------1-----------------------1--------1-------1------|
C|-------2--------2--------2----4-2-1-2-1----------2--------2-------2--------|
G|4-4-44-----4444-----4444----------------4-4-4-44-----4444----4444----------|
D|---------------------------------------------------------------------------|

(This is where the solo starts, during the notes you let ring)
F|---------------------------------------------------------------------------|
C|4-2-1-2-1------------------------------------------------------------------|
G|---------4--4r-----0r---------------4r----0r-------------------------------|
D|-------------------------2r----4r--------------2r-----4r-------------------|

F|---------------------------------------------------------------------------|
C|---------------------------------------------------------------------------|
G|444444-000000---------------444444-000000----------------------------------|
D|--------------222222-444444---------------222222-444444--------------------|

Bridge Part 2: (Basically goes back to Intro Part 2)
F|---------------------------------------------------------------------------|
C|---------------------------------------------------------------------------|
G|44444-4------------------44444-4----------2----44444-4---------------------|
D|--------7-5-00000-00000----------7-5-5-024-45----------7-5-00000-00000-----|

F|---------------------------------------------------------------------------|
C|---------------------------------4-7-6-------------------------------------|
G|-----7-6---7-6---7-6---7-6-4-6-7-------------------------------------------|
D|4444-----4-----4-----4-----------------------------------------------------|

Verse/Outro:
F|---------------------------------------------------------------------------|
C|---------------------------------------------------------------------------|
G|4-4-2h4-2h4---------4-4-2h4-2h4--------------------------------------------|
D|-0-0---0----000-000--0-0---0----000-0245-----------------------------------|x4

And then on the fifth time you do:
F|---------------------------------------------------------------------------|
C|---------------------------------------------------------------------------|
G|4-4-2h4-2h4r---------------------------------------------------------------|
D|-0-0---0-------------------------------------------------------------------|


| r  let ring
| /  slide up
| \  slide down
| h  hammer-on
| p  pull-off
| ~  vibrato
| +  harmonic
| x  Mute note
===============================================================================
Suggest correction
Give kudos to tab author, rate the tab!
1 2 3 4 5
comments
print report bad tab
guest
You may want to rate the tab now too:
select rating
Please do not post tabs as comments. Select "correction" instead!