Oops, an error
Loading. Please wait.

Become The Catalyst Tab

version 1
version 1

Intro

Whole song

2,773 views 1 this week
1 commentread comment
1 2 3 4 5
worth learning
x 3
add to favorites
launch autoscroll
font size
0
reset
how to read this tab
guitar tuner
Autoscroll
slow
fast
+/-
esc
set tempo
stop
Help us to improve Ultimate-Guitar.com Take our survey!
×
Author
Difficulty
Tuning
intermediate
D A D G B E
-----------------------------------------------------------------------------
                             BECOME THE CATALYST - all that remains
-----------------------------------------------------------------------------
Tabbed by:mmaddogg
Email:madog12@frontiernet.net

Tuning:drop D
(INTRO)

e|----------------------------------------------------------------------------|
B|----------------------------------------------------------------------------|
G|----------------------------------------------------------------------------|
D|-7---------7-6---------6-7--------------------------------------------------|
A|-7---------7-6---------6-7---------6h7-5h6p5-6h7p6--------------------------|
D|---000-000-----000-000-----000-000------------------------------------------|
     ... ...     ... ...     ... ...
e|----------------------------------------------------------------------------|
B|----------------------------------------------------------------------------|
G|----------------------------------------------------------------------------|
D|------------------------------------------------------6-5------6-5-4--------|
A|-6h7p6--------6h7p6-5h6p5---------5h6p5-6h7p6-------------6-5--------5------|
D|------000-000-------------000-000-------------000-000-----------------------|
        ... ...             ... ...             ... ... . . . .  . . . .

| /  slide up
| \  slide down
| h  hammer-on
| p  pull-off
| ~  vibrato
| +  harmonic
| x  Mute note
=============================================================================
Suggest correction
What's this?
You can suggest a correction to this tab. Community and Mods will review your correction and vote to approve or reject it.
comments
We did not receive enough feedback on this tab! Please rate:
print report bad tab
1 2 3 4 5
1 comment total.
0 reply
prisonofreason 128 wrote on January 30 2007, 10:40 am

ATR plays in D standard

guest
You may want to rate the tab now too:
select rating
Please do not post tabs as comments. Select "correction" instead!