Oops, an error
Loading. Please wait.

Become The Catalyst Tab

version 1
version 1

Whole song

8,564 views 1 this week
6 commentsread comments
1 2 3 4 5
accurate
x 5
add to favorites
launch autoscroll
font size
0
reset
how to read this tab
guitar tuner
Tab Pro tools
  • play this tab
  • loop segment
  • change instrument
  • show fretboard
  • metronome
×
Best way to learn
"Become The Catalyst"
Autoscroll
slow
fast
+/-
esc
set tempo
stop
Contributor
Become The Catalyst
All That Remains
Fall of Ideals
Tuning:DGCFAD


-------------------------------------------------------------------------|
-------------------------------------------------------------------------|
--9---------9-8----------8-9---------------------------------------------|
--9---------9-8----------8-9---------------------------------------------|
--7---------7-6----------6-7-----------7h10p7-6h9p6-6h7p6---------6------|
----000-000-----000-000------000-000------------------------5-7-8--------|

--------------------------------------------------------------------------------|
--------------------------------------------------------------------------------|
------------------------------------------------------------------------5-4-----|
----------------------------------------------------------------------------5-7-|
-7h10p7---------7h10p7-6h9p6----------6h9p6-7h10p7-----------7-6----------------|
--------000-000---------------000-000----------------000-000------8-7-----------|

---------------------------------------------------------------------------|
---------------------------------------------------------------------------|
---------------------------------------------------------------------------|
---------------------------------------------------------------------------|
-7h10p7----------7h10p7-6h9p6---------6h9p6-7h10p7-------------------------|
---------000-000--------------000-000---------------000-000----------------|

--------------------------------------l Second ending -----------------------------|
--------------------------------------l                        ----------5-4-------|
--------------------------------------l                        --------------5-----|
--------------------------------------l                        -----------------7--|
-7h10p7-6h9p6-6h7p6--------6-------- l                        --7-6----------------|
----------------------5-7-8-----------l                       -------8-7-----------|

VERSE
-----------------------------------------------------------------|
-----------------------------------------------------------------|
------------------------------------------------------4h5p4------|
------------------------------------------------------------5----|
-7-----7-----6------6h7p6-------10-----10-----9--------------7---|
---000---000---000--------8-7------000----000---000--------------|

Bridge
------------------------------------------------------|
------------------------------------------------------|
-9---------------------------5--4-----5--7------------|
-9-----------7---5---4-5-7-- 5--4--or-5--7------------|
-7-------------7---7---------3--2-----3--5------------|
---0-0-0-0-0------------------------------------------|

Chorus

------------------------------------------------------------------|
------------------------------------------------------------------|
-9---------------------------7----------9-------------------------|
-9------------------5--------7----------9-------------------------|
-7------------------5--------55555----- 7-------------------------|
---000000000000000-3333333------------0---------------------------|

Breakdown

-000000000000----0-0-0-0----------------------


Thats about it except for the solo!
comments
print report bad tab
6 comments total. Showing first comments.
0 reply
/-Vince-\ wrote on February 23 2007, 02:04 pm

You missed the fills in the chorus, but apart from that it sounds great.

0 reply
Headbanger_1 wrote on March 9 2007, 02:56 pm

I'd have to give it four star... like /-Vince-\ said: u missed the fills, and id really like to get the solo in the tab =[. otherwise u got it though =]

0 reply
citizenerasedx wrote on April 13 2007, 11:55 am

Chances are - if you had the ability to play the solo, you wouldn't be needing a tab for it. :)

I want to post or [tab]
guest
You may want to rate the tab now too:
select rating
Please do not post tabs as comments. Select "correction" instead!