Oops, an error
Loading. Please wait.

Become The Catalyst Tab

version 2
version 2

Whole song

18,467 views 3 this week
6 commentsread comments
1 2 3 4 5
accurate
x 12
add to favorites
launch autoscroll
font size
0
reset
how to read this tab
guitar tuner
Autoscroll
slow
fast
+/-
esc
set tempo
stop
Help us to improve Ultimate-Guitar.com Take our survey!
×
Author
Difficulty
advanced
-------------------------------------------------------------------------------
                Become The Catalyst - All That Remains
-------------------------------------------------------------------------------
Tabbed by:Greg Misiak
Email:metalfan4@gmail.com

   Gtr. 1:(D G C F A d)
   Gtr. 2:(D G C F A d)


  Every time something is harmonized in this song, both guitars will play the riff once 
then harmonize on the second time around.
 If you rate this, please leave a comment elaborating. Thank you.

        Intro Riff
d|-----------------------------------------------------------------------|
A|-----------------------------------------------------------------------|
F|-----------------------------------------------------------------------|Gtr.1
C|-----------------------------------------------------------------------|
G|-7h10p7h10---------7h10p7h10-6h9p6h9--------6h9p6h9-7h10p7h10----------|
D|-----------000-000-------------------000-000-----------------000-000---|
 |           ... ...                   ... ...                 ... ...   |
 |                                                                       |
 |                                                                       |
d|-----------------------------------------------------------------------|
A|-----------------------------------------------------------------------|
F|-----------------------------------------------------------------------|Gtr.2
C|-5h8p5h8----------5h8p5h8----4h7p4h7--------4h7p4h7-5h8p5h8------------|
G|-----------------------------------------------------------------------|
D|-----------000-000------------------000-000------------------000-000---|
             ... ...                  ... ...                  ... ...


               /  First   \        |    / Second     Ending \
              /  Ending    \       |   /                     \
d|---------------------------------|-------------------------------------|
A|---------------------------------|-------------------------------------|
F|---------------------------------|-------------------------------------|Gtr.1
C|---------------------------------|-------9-7---------------------------|
G|-7h10p7h10-6h9p6h9-7h10-6h7p6----|--7-6------10-9----------------------|
D|------------------------------8-7|---8-7-------------------------------|
 |                                    ....                               |
 |                                                                       |
 |                                                                       |
d|---------------------------------|-------------------------------------|
A|---------------------------------|-------------------------------------|
F|---------------------------------|--------5-7--------------------------|Gtr.2
C|-5h8p5h8-4h7p4h7--5h8-4h5p4------|-5-4--------8-7----------------------|
G|----------------------------6-5--|--6-5--------------------------------|
D|---------------------------------|-------------------------------------|
                                     ....

 Verse Riff
d|-----------------------------------------------------------------------|
A|-----------------------------------------------------------------------|
F|-----------------------------------------------------------------------|Gtr.1
C|-------------------------------------9-7-------------------------------|
G|-7---7---6---6h7p6-----10---10---9-------10-9--7---7---6---6h7p6-------|
D|---0---0---0-------8-7----0----0---0-------------0---0---0-------8-7---|
 |   .   .   .              .    .   .             .   .   .             |
 |                                                                       |
 |                                                                       |
d|-----------------------------------------------------------------------|
A|-----------------------------------------------------------------------|
F|-----------------------------------------------------------------------|Gtr.2
C|---------------------------------------12-10---------------------------|
G|-10---10--9-9h10p9-------13---13--12---------13-12-10--10--9-9h10p9----|
D|----0----0-0-------11-10----0---0----0----------------0---0-0----------|
      .    . .                .   .    .                .   . .

d|-----------------------------------------------------------------------|
A|----------------------O------------------------------------------------|
F|-----------------------------------------------------------------------|
C|-----------------------------------------------------------------------|
G|-10-10---9---10-9-7---O------------------------------------------------|
D|---0---0---0-----------------------------------------------------------|
 |   .   .   .                                                            |
 |                                                                       |
d|-----------------------------------------------------------------------|
A|---------------------------O-------------------------------------------|
F|-----------------------------------------------------------------------|
C|-----------------------------------------------------------------------|
G|-------13-13-12-13-12-10---O-------------------------------------------|
D|-11-10---0--0--0-------------------------------------------------------|
           .  .  .

 Riff 2
d|-----------------------------------------------------------------------|
A|-----------------------------------------------------------------------|
F|-----------------------------------------------------------------------|Gtr.1
C|-9----7-7---------7----------------9----7-7----------7-------7--7-9----|
G|-7--------10-9-10---10--10-10--10--7---------10-9-10---10-10-5--5-7----|
D|--------------------8---8--7---7-----------------------8--8------------|
 |                                                                       |
 |                                                                       |
d|-----------------------------------------------------------------------|
A|-----------------------------------------------------------------------|
F|-----------------------------------------------------------------------|Gtr.2
C|------10-10-----------10------------------10-10------------------------|
G|-10---------13--12h13------------------10--------13-12h13-------8-8-10-|
D|-------------------------11--11-10--10---------------------11-11-------|

  Riff 3 Both Gtrs
d|-----------------------------------------------------------------------|
A|-----------------------------------------------------------------------|
F|-----------------------------------------------------------------------|
C|-9---------------9-7------12-------------------------------------------|
G|-7-7-7-7-7-7-7-7-----10-9-10-10-10-10-10-10-12--------------10-10----12|
D|--------------------------------------------10-10-10-10-10--------14---|
     . . . . . . .             .   .  .  .  .     .  .  .  .

d|-----------------------------------------------------------------------|
A|-----------------------------------------------------------------------|
F|-----------------------------------------------------------------------|
C|-----------------------------------------------------------------------|
G|10----10-10----14--12-10-----------------------------------------------|
D|---14-------14------------14-------------------------------------------|

Both Guitars have an palm mute D5 breakdown here.
G|-2--|
D|-0--|
   .
Chords during solo:
d|-----------------------------------------------------------------------|
A|-----------------------------------------------------------------------|
F|-----------------------------------------------------------------------|
C|-9---------------------------------------------------------------------|
G|-7-7-7-7-7-7-7---10------------9---------------------------------------|
D|-----------------8-8-8-8-8-8-8-7-7-7-7-7-7-7---------------------------|
     . . . . . .     . . . . . .   . . . . . .

 After the solo Gtr. 1 plays Riff 3 while Gtr. 2 can be heard in the background.
d|-----------------------------------------------------------------------|
A|-----------------------------------------------------------------------|
F|-9-9-9-9-9-9-9-9-7-7-7-7-7-7-7-7-7-7-7-7-7-7-7-9-9-9-9-9-9-9-9-9-9-----|
C|-----------------------------------------------------------------------|
G|-7-7-7-7-7-7-7-7-5-5-5-5-5-5-5-5-5-5-5-5-5-5-5-7-7-7-7-7-7-7-7-7-7-----|
D|-----------------------------------------------------------------------|



| /  slide up
| \  slide down
| h  hammer-on
| p  pull-off
| ~  vibrato
| +  harmonic
| x  Mute note
===============================================================================
Suggest correction
What's this?
You can suggest a correction to this tab. Community and Mods will review your correction and vote to approve or reject it.
comments
print report bad tab
6 comments total. Showing first comments. show 1 bad comment
+1 reply
Tony Alley 27 wrote on January 15 2008, 03:41 pm

Amazing! Thank you!

+1 reply
The Hooded One 14 wrote on August 23 2008, 12:45 pm

arnt you suppos to be rating the acuacy of this tab? but yeah it sucks there isnt a solo, but solos are hard to tab out so im giving him 5 stars anyway

guest
You may want to rate the tab now too:
select rating
Please do not post tabs as comments. Select "correction" instead!