Oops, an error
Loading. Please wait.

Before The Dammned Tab

2,864 views 1 this week
no commentswrite comment
1 2 3 4 5
x 3
add to favorites
launch autoscroll
font size
0
reset
how to read this tab
guitar tuner
Autoscroll
slow
fast
+/-
esc
set tempo
stop
Help us to improve Ultimate-Guitar.com Take our survey!
×
Author
It was really hard to listen to the fast palm muted part after the intro. this is just
give you an idea of how it might be played.

-------------------------------------------------------------------------------
                             Before the dammned - All that remains
-------------------------------------------------------------------------------
Tabbed by: Lordofwar147
Email: jefry147@yahoo.com

Tuning: Drop D flat with the whole guitar tuned down a half step.

e|---------------------------------------------------------------------------|
B|---------------------------------------------------------------------------|
G|---------------------------------------------------------------------------|
D|---------------------------------------------------------------------------|
A|---------------------------------------------------------------------------|
D|-00000-00000-00000-00000-000000000000000-00000-00000-00000-000000000000000-|
   ..... ..... ..... ..... ............... ..... ..... ..... ...............

e|--------------------------------------------------------------------------|
B|--------------------------------------------------------------------------|
G|--------------------------------------------------------------------------|
D|--------------------------------------------------------------------------|
A|--------------------------------------------------------------------------|
D|-00000-00000-00000-000000000000000-00000-00000-00000-000000000000000------|
   ..... ..... ..... ............... ..... ..... ..... ...............

e|--------------------------------------------------------------------------|
B|--------------------------------------------------------------------------|
G|--------------------------------------------------------------------------|
D|--------------------------------------------------------------------------|
A|--------------------------------------------------------------------------|
D|-00000-00000-00000-000000000000000-00000-00000-00000-000000000000000------|
   ..... ..... ..... ............... ..... ..... ..... ...............

e|--------------------------------------------------------------------------|
B|--------------------------------------------------------------------------|
G|--------------------------------------------------------------------------|
D|--------------------------------------------------------------------------|
A|--------------------------------------------------------------------------|
D|-00000-00000-00000-000000000000000-00000-00000-00000----------------------|
   ..... ..... ..... ............... ..... ..... .....

This is the really fast palm muted part. It should be SOMETHING like that. So please 
out
the negative comments and give me some POSITIVE corrections. Listen to it to see how many
it is played.

e|--------------------------------------------------------------------------|
B|--------------------------------------------------------------------------|
G|--------------------------------------------------------------------------|
D|-7-3-0--00-7-3-0--0-3-7-777-3-0--0-3-9-777-3-0--7-3-0-9-3-0-7-3-0---------|
A|--------------------------------------------------------------------------|
D|--------------------------------------------------------------------------|
   . . .  .. . . .  . . . ... . .  . . . ... . .  . . . . . . . . .

"After intro"
e|--------------------------------------------------------------------------|
B|--------------------------------------------------------------------------|
G|--------------------------------------------------------------------------|
D|--------------------------------------------------------------------------|
A|-0-0-0-0-----0-0-----0-0----------13-0-0-0-----0-0-----0-0----------------|
D|-0-0-0-0-000-0-0-000-0-0-00000000-0--0-0-0-000-0-0-000-0-0-00000000-------|
     . . . ... . . ... . . ........    . . . ... . . ... . . ........

e|--------------------------------------------------------------------------|
B|--------------------------------------------------------------------------|
G|--------------------------------------------------------------------------|
D|--------------------------------------------------------------------------|
A|-11-11-0-0-----0-0-11-11-0-0----------0-0-0-0-----0-0-----0-0-0-1-1-1-----|
D|-0--0--0-0-000-0-0-0--0--0-0-00000000-0-0-0-0-000-0-0-000-0-0-0-1-1-1-----|
         . . ... . .       . . ........     . . ... . . ... . .

(Play "after intro" 2 times)

email or comment me the rest if you know it. And if your looking for the song 
ive posted it to (just the intro).

| /  slide up
| \  slide down
| h  hammer-on
| p  pull-off
| ~  vibrato
| +  harmonic
| .  Mute note
===============================================================================
Suggest correction
Give kudos to tab author, rate the tab!
1 2 3 4 5
comments
print report bad tab
guest
You may want to rate the tab now too:
select rating
Wanna post a correction for this tab? Suggest correction