Oops, an error
Loading. Please wait.

Behind Silence And Solitude Bass Tab

version 1
version 1

Whole song

Interactive

507 views 1 this week
no commentswrite comment
1 2 3 4 5
3 more votes to show rating
add to favorites
launch autoscroll
font size
0
reset
guitar tuner
Autoscroll
slow
fast
+/-
esc
set tempo
stop
Help us to improve Ultimate-Guitar.com Take our survey!
×
Author
Tuning B,E,A,D,G
I just figured it out so i hope there isn't to many mistakes in it
Repeat 2x (verse)
G/----------------------------------------------------------------------------|
D/----------------------------------------------------------------------------|
A/ ---------------------------------------------------------------------------|
E/ ------9---10---7h9-----9---10---7h9----9---10---7h9----7------5------------|
B/ ---00---0----0------88---8----8-----77---7----7-----55---5-33--------------|

Then do this 2x ( harmonized verse)
G/----------------------------------------------------------------------------|
D/----------------------------------------------------------------------------|
A/ ---------------------------------------------------------------------------|
E/ ------12---14--10h12---9---10---7h9----9---10---7h9----7---------5---------|
B/ ---00---0----0------88---8----8-----77---7----7-----55---5---33------------|

Followed by...  (chorus)

G/----------------------------------------------------------------------------|
D/----------------------------------------------------------------------------|
A/------------------------------------------------------- 9h10p9-----9--------|
E/--- 10---9---10-------10---9---10--------12----10----12---------12----12-10-|
B/-77----7---7-------88----8---8------1010----10----10------------------------|

G/---------------------------------------------------------------------------|
D/---------------------------------------------------------------------------|
A/------------------------------------------------------9h10p9---9----9h10---|
E/--- 10---9---10------- 10---9---10------ 12----10----12-------12---12------|
B/-77----7---7-------88----8---8----1010----10----10-------------------------|

Then repeat Verse 2x
Then repeat Harmonized verse 2x
Followed by Chorus
Then play.. (harmonized chorus)

G/-------------------------------------------------------------------------|
D/------------------------------------------------------9h10p9----9--------|
A/-----10---9---10----10---9---10------12----10----12----------12---12-10--|
E/-------------------------------------------------------------------------|
B/-77-----7---7----88----8---8----1010----10----10-------------------------|

G/---------------------------------------------------------------------------|
D/-----------------------------------------------------9h10p9----9----9h10---|
A/-----10---9---10----10---9---10------12----10----12---------12---12--------|
E/---------------------------------------------------------------------------|
B/-77-----7---7----88----8---8----1010----10----10---------------------------|

Then play verse 2x
harmonized verse 2x
chorus
Harmonized chorus

then there is a breakdown which i haven't tabbed but if you want to figure it out your 
than welcome

verse 2x
harmonized verse 2x
chorus
harmonized chorus

breakdowns back again followed by a solo which is hard to hear but from
the sound of it not very interesting but i will repeat, your more than
welcome to learn if you want

verse 2x
harmonized verse 2x
chorus
harmonized chorus

Then there is a short little run and thats the end of the song
I hope this has been helpful. The song is fun to play and i hope you enjoy learning it
playing it too!
Suggest correction
Give kudos to tab author, rate the tab!
1 2 3 4 5
comments
print report bad tab
guest
You may want to rate the tab now too:
select rating
Wanna post a correction for this tab? Suggest correction