Oops, an error
Loading. Please wait.

Empty Inside Tab

version 1
version 1
5,209 views 1 this week
no commentswrite comment
1 2 3 4 5
please rate
add to favorites
launch autoscroll
font size
0
reset
how to read this tab
guitar tuner
Autoscroll
slow
fast
+/-
esc
set tempo
stop
Help us to improve Ultimate-Guitar.com Take our survey!
×
Author
Difficulty
intermediate
Guitar 1 (left channel)
|--------------------------------------|
|--------------------------------------|
|-----------------------2--------------|
|-2---2-245-----54-------54-4-4-454-2--|
|-------------3---5---5------------5---|
|--000-0---000-0---000-0---0-0-0-------|
   ... .   ... .   ... .   . . .
|--------------------------------------|
|--------------------------------------|
|-----------------------2--------------|
|-2---2-245-----54-------54-4-4-454-5--|
|-------------3---5---5------------5---|
|--000-0---000-0---000-0---0-0-0-------|
   ... .   ... .   ... .   . . .

|------------------------------------------|
|------------------------------------------|
|------------------------------------------|
|-5---5-579-----97--------1097-7-7-797-----|
|-------------7---10---10-------------710--|
|--000-0---000-0----000--0----0-0-0--------|
   ... .   ... .    ...  .    . . .
Suggest correction
Give kudos to tab author, rate the tab!
1 2 3 4 5
comments
print report bad tab
guest
You may want to rate the tab now too:
select rating
Wanna post a correction for this tab? Suggest correction