Oops, an error
Loading. Please wait.

Empty Inside Tab

version 3
version 3
3,445 views 1 this week
no commentswrite comment
1 2 3 4 5
please rate
add to favorites
launch autoscroll
font size
0
reset
how to read this tab
guitar tuner
Autoscroll
slow
fast
+/-
esc
set tempo
stop
Help us to improve Ultimate-Guitar.com Take our survey!
×
Author
Difficulty
novice
This is my first tab, so if you find ne mistaskes dont hesitate 2 comment me lol:) but 
enjoy it, even tho its only the intro :)

Tuning - D,A,D,G,B,E

|------------------------------------------------------|
|------------------------------------------------------|
|------------------------------------------------------|
|------------------------------------------------------|
|---5-------5---5h7s8-------1---8p7s3-------3-------3--|
|-----0-0-0---0-------0-0-0---0-------0-0-0---0-0-0----|
P.M   . . .   .       . . .   .       . . .   . . .

|-------------------------------------------------------|
|-------------------------------------------------------|
|-------------------------------------------------------|
|-------------------------------------------------------|
|-----10p8s7--7---7---7h8p7s3s5-------------------------|
|---0-----------0---0-----------------------------------|
P.M .           .   .


Repeat this 4 times, two of the times goes into a harmony but i haven't figured out that 
yet ;D

but hey, if ya got ne problems wiv it or any comments, comment me obviously:)
Suggest correction
Give kudos to tab author, rate the tab!
1 2 3 4 5
comments
print report bad tab
guest
You may want to rate the tab now too:
select rating
Please do not post tabs as comments. Select "correction" instead!