Oops, an error
Loading. Please wait.

Empty Inside Tab

version 1
version 1
16,696 views 12 this week
2 commentsread comments
1 2 3 4 5
worth learning
x 3
add to favorites
launch autoscroll
font size
0
reset
how to read this tab
guitar tuner
Tab Pro tools
  • play this tab
  • loop segment
  • change instrument
  • show fretboard
  • metronome
Autoscroll
slow
fast
+/-
esc
set tempo
stop
Song: Empty Inside
Artist: All That Remains
Tabbed by: Patrick Kelley
Tuning: DGCFAD


Intro Play 4 times
|--------------------------------------|
|--------------------------------------|
|-----------------------2--------------|
|-2---2-245-----54-------54-4-4-454-2--|
|-------------3---5---5------------5---|
|--000-0---000-0---000-0---0-0-0-------|
   
Verse
|--------------------------------------|
|--------------------------------------|
|---------------------------2----------|
|------22----542------55-----54--------|
|-2-22----22-----5-55----55------------|
|-0-00----00-----3-33----33------------|

|--------------------------------------|
|--------------------------------------|
|--------------------------------------|
|------22----542-----------------------|
|-2-22----22-----55--55--5555----------|
|-0-00----00-----33--33--3333----------|
   
comments
We did not receive enough feedback on this tab! Please rate:
print report bad tab
1 2 3 4 5
2 comments total.
0 reply
youllcallmedadd wrote on December 18 2006, 05:01 pm

have you ever actually listened to the song?

0 reply
gigson111 wrote on January 19 2007, 03:53 pm

this tab sucks....i wanted the solo

I want to post or [tab]
guest
You may want to rate the tab now too:
select rating
Please do not post tabs as comments. Select "correction" instead!