Oops, an error
Loading. Please wait.

Empty Inside Tab

version 2
version 2
33,114 views 6 this week
16 commentsread comments
1 2 3 4 5
accurate
x 14
add to favorites
launch autoscroll
font size
0
reset
how to read this tab
guitar tuner
Autoscroll
slow
fast
+/-
esc
set tempo
stop
Help us to improve Ultimate-Guitar.com Take our survey!
×
                                  EMPTY INSIDE
                         As recorded by All That Remains



     E5                   G5                   D5                   C5
 0 2 2 x x x          3 5 5 x x x          x 5 7 7 x x          x 3 5 5 x x

     A5                   B5
 x 0 2 2 x x          x 2 4 4 x x

** ALL GUITARS TUNED DOWN A WHOLE-STEP LOW - HIGH = D G C F A D
** MAIN RIFFS ALL COVERED HERE

   Intro
    Q=205
   4/4
    Gtrs I, II
      PM--|   PM         PM--|   PM
    E E E E E E E E    E E E E E E  E E
||------------------|-------------------|
||o-----------------|-------------------|
||------------------|-------------------|
||------------------|-------------------|
||o-7-------7---7-9-|-10-----------10-9-|
||----0-0-0---0-----|----0-0-0-8-0------|


     PM--|    PM         PM  PM
   E E E E  E E E  E   E E E E E  E E  E
|--------------------|---------------------||
|--------------------|--------------------o||
|--------------------|---------------------||
|---------------7----|---------------------||
|-----------------10-|-9---9---9-10-7-----o||
|-10-0-0-0-10-0------|---0---0--------10---||


    Gtr I
       PM--|    PM          PM--|   PM
     E E E E  E E  E E    E E E E E E  E E
||---------------------|-------------------|
||o--------------------|-------------------|
||---------------------|-------------------|
||---------------------|-------------------|
||o--7--------7----7-9-|-10-----------10-9-|
||-----0-0-0----0------|----0-0-0-8-0------|
|
|   Gtr II
|      PM--|    PM          PM--|   PM
|    E E E E  E E  E E    E E E E E E  E E
||---------------------|-------------------|
||o--------------------|-------------------|
||---------------------|-------------------|
||-------------------7-|--9------------9-7-|
||o-10-------10---10---|----------7--------|
||-----0-0-0----0------|----0-0-0---0------|


     PM--|    PM          PM  PM
   E E E E  E E  E  E   E E E E E  E  E  E
|---------------------|----------------------||
|---------------------|---------------------o||
|---------------------|----------------------||
|----------------7----|----------------------||
|------------------10-|-9---9---9-10--7-----o||
|-10-0-0-0-10-0-------|---0---0---------10---||
|
|    PM--|    PM          PM  PM
|  E E E E  E E  E  E   E E E E E  E  E  E
|---------------------|----------------------||
|---------------------|---------------------o||
|---------------------|----------------------||
|---------------10--9-|-7---7---7--9---------||
|--9--------9---------|--------------10--9--o||
|----0-0-0----0-------|---0---0--------------||


   Verse
       PM|   PM  PM----|   PM  PM         PM|   PM  PM----|   PM  PM
    Q  E E E E E E   E E E E E E E E   Q  E E E E E E   E E E E E E E E
||-----------------|-----------------|----------------|------------------|
||o----------------|-----------------|----------------|------------------|
||-----------------|-----------------|----------------|------------------|
||---------2---2---|-----5---4-------|--------5---5---|-----7---5---4----|
||o-2--------------|-------------2h5-|-5--------------|------------------|
||--0--0-0---0---0-|-0-0---0---0-----|-3--3-3---3---3-|-3-3---3---3---3--|


     PM|   PM  PM----|   PM  PM         PM|         PM|    PM----|
  Q  E E E E E E   E E E E E E E E   Q  E E Q  Q    E E Q  E E E E
|----------------|-----------------|--------------|-----------------||
|----------------|-----------------|--------------|----------------o||
|----------------|-----------------|--------------|-----------------||
|--------2---2---|-----5---4-------|--------------|-----------------||
|-2--------------|-------------2h5-|-5--5-5----5--|-5-5----5-4-2-4-o||
|-0--0-0---0---0-|-0-0---0---0-----|-3--3-3----3--|-3-3----3-2-0-2--||


 Chorus
  E5           G5              D5         C5   D5
  Gtr III
  W             W              W          H    H
  |             |              |          |    |
  /             /              /          /    /

  Gtr I
  TP      TP    TP    TP  TP   TP         TP   TP
  H.      Q     H     Q   Q    W          H    H
|------------|---------------|----------|-----------|
|------------|---------------|----------|-----------|
|------------|---------------|----------|-----------|
|------------|---------------|----------|-----------|
|-7-------9--|-10----12--10--|-9--------|-3----5----|
|------------|---------------|----------|-----------|
|
| Gtr II
| TP      TP    TP    TP  TP   TP         TP   TP
| H.      Q     H     Q   Q    W          H    H
|------------|---------------|----------|-----------|
|------------|---------------|----------|-----------|
|------------|---------------|----------|-----------|
|-5-------7--|--9----10---9--|-7--------|-2----4----|
|------------|---------------|----------|-----------|
|------------|---------------|----------|-----------|


  E5           G5              A5         C5   B5
  W             W              W          H    H
  |             |              |          |    |
  /             /              /          /    /

  TP      TP    TP    TP  TP   TP         TP   TP
  H.      Q     H     Q   Q    W          H    H
|------------|---------------|----------|-----------||
|------------|---------------|----------|-----------||
|------------|---------------|----------|-----------||
|------------|---------------|----------|-----------||
|-7-------9--|-10----12--10--|-9--------|-3----5----||
|------------|---------------|----------|-----------||
|
| TP      TP    TP    TP  TP   TP         TP   TP
| H.      Q     H     Q   Q    W          H    H
|------------|---------------|----------|-----------||
|------------|---------------|----------|-----------||
|------------|---------------|----------|-----------||
|-5-------7--|--9----10---9--|-7--------|-2----4----||
|------------|---------------|----------|-----------||
|------------|---------------|----------|-----------||


   Bridge
    E5                 G5
    W                   W
    |                   |
    /                   /

    E E E E E E  E E    E E  E  E  E  E  E E
||-------------------|-----------------------|
||o------------------|-----------------------|
||--9-----9-----11---|-12------14-------12---|
||----5-----5------7-|----9-------10-------9-|
||o-----7-----7------|------10-------12------|
||-------------------|-----------------------|
|
|   E E E E E E  E E    E E  E  E  E  E  E E
||-------------------|-----------------------|
||o------------------|-----------------------|
||--4-----4------7---|--9-------5--------4---|
||----2-----2------4-|----5--------2-------2-|
||o-----2-----2------|-------7--------3------|
||-------------------|-----------------------|


  D5
   W                 +W
   |                  |
   /                  /

   E E E E E E E E    E E E E E E  E E
|------------------|--------------------|
|------------------|--------------------|
|-11-----9-----7---|--7-----9-----11----|
|----7-----7-----7-|----7-----7------7--|
|------9-----9-----|------9-----9-------|
|------------------|--------------------|
|
|  E E E E E E E E    E E E E E E  E E
|------------------|--------------------|
|------------------|--------------------|
|--2-----4-----2---|--2-----0------2----|
|----0-----0-----0-|----0-----0------0--|
|------0-----0-----|------0-----0-------|
|------------------|--------------------|


  E5                 G5                    A5
  W                   W                     W
  |                   |                     |
  /                   /                     /

  E E E E E E  E E    E E  E  E E E  E E    E  E  E  E  E  E  E  E
|------------------|---------------------|-------------------------|
|------------------|---------------------|-------------------------|
|-9-----9-----11---|-12------11-----12---|-14-------14-------16----|
|---5-----5------7-|----9-------7------9-|----10-------10-------12-|
|-----7-----7------|------10------9------|-------12-------12-------|
|------------------|---------------------|-------------------------|
|
| E E E E E E  E E    E E  E  E E E  E E    E  E  E  E  E  E  E  E
|------------------|---------------------|-------------------------|
|------------------|---------------------|-------------------------|
|-4-----4------7---|--9-------2------4---|--5--------5--------7----|
|---2-----2------4-|----5-------0------0-|-----2--------2--------4-|
|-----2-----2------|-------7------0------|--------3--------3-------|
|------------------|---------------------|-------------------------|


 1.                           2.
  +W                          +W
   |                           |
   /                           /

   E  E  E  E  E  E  E  E      E  E  E  E  E  E  E  E
|--------------------------||-------------------------||
|-------------------------o||-------------------------||
|-17-------16-------16-----||-17-------16-------16----||
|----14-------14-------14--||----14-------14-------14-||
|-------15-------15-------o||-------15-------15-------||
|--------------------------||-------------------------||
|
|  E  E  E  E  E  E  E  E      E  E  E  E  E  E  E  E
|--------------------------||-------------------------||
|-------------------------o||-------------------------||
|--9--------7--------7-----||--9--------7--------7----||
|-----5--------5--------5--||-----5--------5--------5-||
|--------7--------7-------o||--------7--------7-------||
|--------------------------||-------------------------||


Duration Legend
---------------
W - whole; H - half; Q - quarter; E - 8th; S - 16th; T - 32nd; X - 64th; a - 

acciaccatura
+ - note tied to previous; . - note dotted; .. - note double dotted
Uncapitalized letters represent notes that are staccato (1/2 duration)
Irregular groupings are notated above the duration line
Duration letters will always appear directly above the note/fret number it represents 

the
duration for.  Duration letters with no fret number below them represent rests.  

Multi-
bar rests are notated in the form Wxn, where n is the number of bars to rest for.  

Low
melody durations appear below the staff

Tablature Legend
----------------
 h   - hammer-on
 p   - pull-off
 b   - bend
 pb  - pre-bend
 r   - bend release (if no number after the r, then release immediately)
 /\  - slide into or out of (from/to "nowhere")
 s   - legato slide
 S   - shift slide
  - natural harmonic
[n]  - artificial harmonic
n(n) - tapped harmonic
 ~   - vibrato
 tr  - trill
 T   - tap
 TP  - trem. picking
 PM  - palm muting
\n/  - tremolo bar dip; n = amount to dip
 \n  - tremolo bar down
 n/  - tremolo bar up
/n\  - tremolo bar inverted dip
 =   - hold bend; also acts as connecting device for hammers/pulls
 <>  - volume swell (louder/softer)
 x   - on rhythm slash represents muted slash
 o   - on rhythm slash represents single note slash

Misc Legend
-----------
 |  - bar
||  - double bar
||o - repeat start
o|| - repeat end
*|  - double bar (ending)
 :  - bar (freetime)
 $  - Segno
 &  - Coda
Tempo markers -  = BPM(8/16=s8/s16)
   
Suggest correction
comments
print report bad tab
16 comments total. Showing first comments.
0 reply
thezac 10 wrote on May 23 2007, 09:30 pm

you say its in drop D but you tabbed it if it were played in standard

0 reply
youllcallmedadd 10 wrote on May 27 2007, 08:29 pm

yeah he did haha

0 reply
thezac 10 wrote on June 21 2007, 09:05 pm

oh never mind you tabbed it as a full step down sorry

guest
You may want to rate the tab now too:
select rating
Wanna post a correction for this tab? Suggest correction