Oops, an error
Loading. Please wait.

Empty Inside Tab

version 3
version 3
2,192 views 6 this week
3 commentsread comments
1 2 3 4 5
2 more votes to show rating
add to favorites
launch autoscroll
font size
0
reset
how to read this tab
guitar tuner
Autoscroll
slow
fast
+/-
esc
set tempo
stop
Help us to improve Ultimate-Guitar.com Take our survey!
×
Author
Difficulty
Tuning
intermediate
D A D G B E
AL THAT REMAINS - EMPTY INSIDE

mmmmmmm....... this is how i play this song and sounds like 100% accurate
1 of my favorites bands   so lets play yei
Drop D


---------------------------------------------------------------------------|
---------------------------------------------------------------------------|
---------------------------------------------------------------------------|
--------------------------------------------------7-5-4---4----4-4-5-4-----|
-7------7---7-9-10-------10----10-9--5--------5------------------------5-7-|
---0-0-0---0--------0-0-0-----0---------0-0-0----0---------0----0----------|
   pm...   .        pm...     .         pm...    .         .    .

All this intro repeats lke 4 or 5 times

THEN this............................................

-------------------------------------------------------------------------|
-------------------------------------------------------------------------|
-------------------------------------------------------------------------|
-------------------------------------------------------------------------|
-2-------7---7-----10-9----5h7---5-55---10---10-----12---10--9h10--------|
-0--0-0----0---000---0--0--------3-33------0----000----0---0-------------|
    pm.    .   ...   .  .          ..      .    ...    .   .


-------------------------------------------------------------------------|
-------------------------------------------------------------------------|
-------------------------------------------------------------------------|
-------------------------------------------------------------------------|
-2-------7---7-----10-9----5h7---5-55---5--55-----5--3-2-----------------|
-0--0-0----0---000---0--0--------3-33---3--33------------5---------------|
    pm.    .   ...   .  .          ..      ..     ........

and repeated like another time

and then this.....................................................


------------------------------------------------------------------------|
------------------------------------------------------------------------|
------------------------------------------------------------------------|
------------------------------------------------------------------------|
--7--9-10--12--10-9--3-5---7-9-10-9-10-12---14-15-14--------------------|
------------------------------------------------------------------------|
 this part extremely ataking the string so hard.


or if iu wanet to pplay this part like this its ta same thing but on different string. 
way make iu comffortable

-----------------------------------------------------------------------|
-----------------------------------------------------------------------|
-----------------------------------------------------------------------|
-----------------------------------------------------------------------|
------------12-------------------------------12--14-15-14--------------|
-12--14-15------15-14--8-10---12-14-15-14-15---------------------------|

theres 1 part that i can't figure out on 1:25 so i think its like this

ONE GUITAR PLAY THIS
Ei one thing i trying to get this part but without my amp because cant play at high time 
the night so

-----------------------------------------------------------------------|
-----------------------------------------------------------------------|
-----------------------------------------------------------------------|
--14----14-------16-17---19--17--16---14-----12----16--14--12----------|
-----------------------------------------------------------------------|
-----0-0-----0-0---0---00--00--0----00----00----0----00--00---0--------|


-----------------------------------------------------------------------|
-----------------------------------------------------------------------|
-----------------------------------------------------------------------|
--14----14-------16-17---16--17--19---19-----21----22--21--------------|
-----------------------------------------------------------------------|
-----0-0-----0-0---0---00--00--0----00----00----0----00----------------|

the other guitar dont know

SOLO:

NEXT TIME...........................................................


+++++++++++++++++++++++++++++++++++++++++++++++++++++++++++++++++++++++++
THERES another change on the last part of the song, on this verse
iu have to make an arrangement, its like a powerchord but on the next string ont the 
with doble line
 -----------------------------------------------------------------------|
------------------------------------------------------------------------|
+=======================================================================+
------------------------------------------------------------------------
+==7==9=10==12==10=9==3-5==7=9=10=9=10=12===14=15=14====================+
------------------------------------------------------------------------
++++++++++++++++++++++++++++++++++++++++++++++++++++++++++++++++++++++++++



IF IU WANT TO CONTACTME OR SAY WAHT IU WANT TO TELLME ABOUT MY TAB HERES MY MAIL 
 or to helpe to get the solo

. soo see you later ....

ALL THAT REMAINS RULESSSSSSS !!!!!!!!!!!!!!!!11

YEEEEEEEIAAAAAAAAAAAAAAAAAAAAAAAAAAA
Suggest correction
Give kudos to tab author, rate the tab!
1 2 3 4 5
comments
print report bad tab
3 comments total.
0 reply
metal10468 464 Jun 25, 2007 05:44 PM

The tuning should say D Standard

0 reply
penguinkiller72 41 Sep 09, 2007 04:38 PM

yes, d standard, just like all of the songs on the fall of ideals album

0 reply
GodofCheesecake 186 Sep 12, 2007 05:52 PM

English must not be this guy's first language....

guest
You may want to rate the tab now too:
select rating
Wanna post a correction for this tab? Suggest correction