Oops, an error
Loading. Please wait.

Erase Tab

version 2
version 2

Whole song

Interactive

781 views 3 this week
no commentswrite comment
1 2 3 4 5
please rate
add to favorites
launch autoscroll
font size
0
reset
how to read this tab
guitar tuner
Tab Pro tools
  • play this tab
  • loop segment
  • change instrument
  • show fretboard
  • metronome
×
Best way to learn
"Erase"
Autoscroll
slow
fast
+/-
esc
set tempo
stop
Contributor
Difficulty
Tuning
intermediate
B E A D F# B
Song= Erase
Artist=All That Remains
Album= Behind Silence and Solitude
Year= ?


Tuning: C# G# E B F# B
Tab:Screamaimfire99
Email: tomsaw.99@hotmail.com
 
I'm not sure if all of this is correct so feel free to email me about any incorrections.Enjoy!

        Intro
C#   ----------------------------------------------------------------||
G#   ----------------------------------------------------------------||
E      -------------------------------7--------------------------7-----||       x2
B      ----------------------------7--------------------------------7--||
F#    --------7--6---------7--6---------------7--6--------7--6--------||
B      --0--7--------0--7----------------0--7--------0--7--------------||

Heavy bit

C#    -------------------------------------------22b--||
G#    ------------------------------------------------||
E      --------------9-----8-----------------9---------||      x2
B      --0-----7-----9-----8-----0-----7-----9---------||
F#    --0-----7-----7-----6-----0-----7-----7---------||
B      --0-----7-----------------0-----7---------------||



C#    -------------------------------------------------------------------------||
G#    -------------------------------------------------------------------------||
E       ---------------------------------------9-----9--9--9-----8-----8--8--8--||
B       --0-----0--0--0-----7-----7--7--7-----9-----9--9--9-----8-----8--8--8--||
F#     --0-----0--0--0-----7-----7--7--7-----7-----7--7--7-----6-----6--6--6--||
B       --0-----0--0--0-----7-----7--7--7---------------------------------------||
                       ---PM---             ---PM---                       ---PM---     ---PM---

--------------------------------------------------------------------------||
--------------------------------------------------------------------------||
---------------------------------------9-----9--9--9-----8-----8--8--8---||
--0-----0--0--0-----7-----7--7--7-----9-----9--9--9-----8-----8--8--8---||
--0-----0--0--0-----7-----7--7--7-----7-----7--7--7-----6-----6--6--6---||
--0-----0--0--0-----7-----7--7--7----------------------------------------||
              ---PM---                   ---PM---                 ---PM---        ---PM---



------------------------------------------------------------------------||
------------------------------------------------------------------------||
---------------------------------------9-----9--9--9-----8-----8--8--8--||
--0-----0--0--0-----7-----7--7--7-----9-----7--7--7-----6-----6--6--6--||
--0-----0--0--0-----7-----7--7--7-----7-----7--7--7-----6-----6--6--6--||
--0-----0--0--0-----7-----7--7--7---------------------------------------||
              ---PM---                  ---PM---                  ---PM---            ---PM---


---------------------------------------------------------------||
---------------------------------------------------------------||
---------------------------------------9--9--9--9--8--8--8--8--||
--0-----0--0--0-----7-----7--7--7-----9--9--9--9--8--8--8--8--||
--0-----0--0--0-----7-----7--7--7-----7--7--7--7--6--6--6--6--||
--0-----0--0--0-----7-----7--7--7------------------------------||
              ---PM---                  ---PM---
    

--------||
--------||
--------||           ring out
--3-----||
--0-----||
--0-----||                     

Verse 1

------------------------------------------------------------------------------||
------------------------------------------------------------------------------||
------------------------------------------------------------------------------||
------------------------------------------------------------------------------||
--------5--5--------6--3------0--3--1--------1--1-------0--0-----------------||
--0--0--------0--0------0--0-----------5--5--------3--3-------3--3--1--3--0--||
   -PM-               -PM-          -PM-                   -PM-               -PM-       -PM-


-------------------------------------------------------------------------------|
-------------------------------------------------------------------------------|
-------------------------------------------------------------------------------|
-------------------------------------------------------------------------------|
--------5--5--------6--3--------0--3--1--------1--1-------0--0----------------|
--0--0--------0--0--------0--0-----------5--5--------3--3-------3--3--1--3--0-|
   -PM-              -PM-               -PM-                   -PM-              -PM-       -PM-

repeat verse 1 four more times

Chorus

---------------------------------------------10b--||
--------------------------------------------------||
--------------------------------------------------||
--0---3---10---8--8--3---0---3---10--10--8-------||
--0---3---10---8--8--3---0---3---10--10--8-------||
--0---3---10---8--8--3---0---3---10--10--8-------||



--------------------------------------------------------------------||
--------------------------------------------------------------------||
--------------------------------------------------------------------||       x2
--0---3---10---8--8--3--------7--------9-------10-------9------7---||
--0---3---10---8--8--3--5--8----7--10---8--12-----7--10--5--8-----||
--0---3---10---8--8--3----------------------------------------------||
                                            --------------------PM---------------------


repeat verse 1 four times when vocals come in

Chorus

that's all i got for you at the moment, please rate and comment and incorrections, 
it's my first tab so don't be to hard on me!


-PM- = Palm Mute
b = Bend
   
comments
We did not receive enough feedback on this tab! Please rate:
print report bad tab
1 2 3 4 5
I want to post or [tab]
guest
You may want to rate the tab now too:
select rating
Please do not post tabs as comments. Select "correction" instead!