Oops, an error
Loading. Please wait.

Focus Shall Not Fail Tab

version 1
version 1

Whole song

Interactive

15,899 views 12 this week
13 commentsread comments
1 2 3 4 5
x 11
add to favorites
launch autoscroll
font size
0
reset
how to read this tab
guitar tuner
Autoscroll
slow
fast
+/-
esc
set tempo
stop
Help us to improve Ultimate-Guitar.com Take our survey!
×
Author
Difficulty
intermediate
-------------------------------------------------------------------------------
	         Focus Shall Not Fail - All That Remains
-------------------------------------------------------------------------------


Revised by Jon 
Jloane@gmail.com

Into Tabbed by: metallislave	
Email: jenky_fats@hotmail.com

Tuning: D Standard

d|---------------------------------------------------------------------------|
A|---------------------------------------------------------------------------|
F|-9~----------------------------------5~------------------------------------|
G|-9~---10~---7~---2~--------------2---5~-------------------0------9-9-------| 1x
C|-7~---10~---5~---0~------------2-----3~---3-5-3-2-------0------9-----9----9|
D|-------8~---5~---0~---0000-0-0--------------------5-3-2------7---------11--|

d|---------------------------------------------------------------------------|
A|---------------------------------------------------------------------------|
F|---------------------------------------------------------------------------|
G|-----------------7---------------------------------------------------------|\
C|-----6-9-7-----9---10-----7h9-----10-7-6-----7-10-9-7-6-9-7-6--------------| \
D|-000-------000--------000-----000--------000-------------------------------|  \
										 2x
d|---------------------------------------------------------------------------|  /
A|---------------------------------------------------------------------------| /
F|---------------------------------------------------------------------------|/
G|-----------------7---------------------------------------------------------|
C|-----6-9-7-----9---10-----7h9-----10-7-6-----6-7-6-----9-7-6---------------|
D|-000-------000--------000-----000--------000-------8-7---------------------|

d|---------------------------------------------------------------------------|
A|---------------------------------------------------------------------------|
F|---------------------------------------------------------------------------|
G|---------------------------------------------------------------------------|\
C|-------------------------------------------7-10-9-7-6-9-7-6----------------| \
D|-000-000-000-0-000-000-000-0-000-000-000-0---------------------------------|  \
										 2x
d|---------------------------------------------------------------------------|  /
A|---------------------------------------------------------------------------| /
F|---------------------------------------------------------------------------|/
G|---------------------------------------------------------------------------|
C|---------------------------------------------6-7-6-----9-7-6---------------|
D|-000-000-000-0-000-000-000-000-000-000-000-0-------8-7---------------------|

d|---------------------------------------------------------------------------|
A|---------------------------------------------------------------------------|
F|---------------------------------------------------------------------------|
G|-----------------7---------------------------------------------------------|\
C|-----6-9-7-----9---10-----7h9-----10-7-6-----7-10-9-7-6-9-7-6--------------| \
D|-000-------000--------000-----000--------000-------------------------------|  \
										 2x
d|---------------------------------------------------------------------------|  /
A|---------------------------------------------------------------------------| /
F|---------------------------------------------------------------------------|/
G|-----------------7---------------------------------------------------------|
C|-----6-9-7-----9---10-----7h9-----10-7-6-----6-7-6-----9-7-6---------------|
D|-000-------000--------000-----000--------000-------8-7---------------------|

d|--------|                          e|--------|    
A|--------|                          B|--------|
F|--------|                          G|--------|
G|-2~-----| other guitar plays this: D|-9~-----|
C|-2~-----|                          A|-7~-----|
D|-0~-----|                          E|-0~-----|

d|---------------------------------------------------------------------------|
A|---------------------------------------------------------------------------|
F|---------------------------------------------------------------------------|
C|---------------------------------------------------------------------------|
C|---7p0---------3p0-2p0----2p0--7p0-6p0--------------2----2/3-2/5-----------|
D|-------0-0000----------00--------------0-0000-0000----00-------------------|

d|---------------------------------------------------------------------------|
A|---------------------------------------------------------------------------|
F|---------------------------------------------------------------------------|
C|----------------------------------------------------7-5-4-5p4--------------|
C|---7p0---------3p0-2p0----2p0--7p0-6p0------------------------5\-----------|
D|-------0-0000----------00--------------0-0000-0000-------------------------|

d|---------------------------------------------------------------------------|
A|---------------------------------------------------------------------------|
F|---------------------------------------------------------------------------|
C|--2-----5\4/5---------------------------7-5-4---5p4------------------------|
C|--2-----3\2/3------5\4/5----------------------5-----5/7--------------------|
D|--0-000-------000--3\2/3----7-77777777-------------------------------------|

d|---------------------------------------------------------------------------|
A|---------------------------------------------------------------------------|
F|---------------------------------------------------------------------------|
C|--2-----5\4/5----------------------10-9-7----------7-5-4-------------------|
C|--2-----3\2/3------5\4/5------------------9--------------5-----------------|
D|--0-000-------000--3\2/3----7-777------------5-555-------------------------|

d|---------------------------------------------------------------------------|
A|---------------------------------------------------------------------------|
F|---------------------------------------------------------------------------|x2
G|----9------9h10p9------4h5p4---0--4------4-2-4-----4h5p4--0----------------|
C|----7--------------555---------0--2--222-------000--------0----------------|
D|----0--0000----------------------------------------------------------------|

d|---------------------------------------------------------------------------|
A|---------------------------------------------------------------------------|
F|---------------------------------------------------------------------------|
C|--2-----5\4/5---------------------------7-5-4---5p4------------------------|
C|--2-----3\2/3------5\4/5----------------------5-----5/7--------------------|
D|--0-000-------000--3\2/3----7-77777777-------------------------------------|

d|---------------------------------------------------------------------------|
A|---------------------------------------------------------------------------|
F|---------------------------------------------------------------------------|
C|--2-----5\4/5----------------------10-9-7----------7-5-4-------------------|
C|--2-----3\2/3------5\4/5------------------9--------------5-----------------|
D|--0-000-------000--3\2/3----7-777------------5-555-------------------------|

d|---------------------------------------------------------------------------|
A|---------------------------------------------------------------------------|
F|---------------------------------------------------------------------------|x2
G|----9------9h10p9------4h5p4---0--4------4-2-4-----4h5p4--0----------------|
C|----7--------------555---------0--2--222-------000--------0----------------|
D|----0--0000----------------------------------------------------------------|

too lazy to figure out harmony guitar. but these last riffs are played behind it.

d|---------------------------------------------------------------------------|
A|---------------------------------------------------------------------------|
F|---------------------------------------------------------------------------|
C|---------------------------------------------------------------------------|
C|---7p0---------3p0-2p0----2p0--7p0-6p0--------------2----2/3-2/5-----------|
D|-------0-0000----------00--------------0-0000-0000----00-------------------|

d|---------------------------------------------------------------------------|
A|---------------------------------------------------------------------------|
F|---------------------------------------------------------------------------|
C|----------------------------------------------------7-5-4-5p4--------------|
C|---7p0---------3p0-2p0----2p0--7p0-6p0------------------------5\-----------|
D|-------0-0000----------00--------------0-0000-0000-------------------------|


played in background of next 3 riffs.
d|----------------------------|
A|----------------------------|
F|----------------------------|
G|----------------------------|x8 until harmony
C|----------------------------|
D|-000-000--000-000-000-------|
   --- ---      --- ---

--- = triplets



let ring throughout
d|------------------------|   d|------------------------------------|
A|-----7----~-------------|   A|-----7-------7-------7-------7------|
F|-------9--~-------------|   F|-------9---9---9---9---9---9---9----|
G|---------9~-------------|x4 G|---------9-------9-------9-------9--|
C|------------------------|   C|------------------------------------| 
D|------------------------|   D|------------------------------------|

d|---------------------------------------------------------------------------|
A|---------------------------------------------------------------------------|
F|---99999999/1111111/12121212\1111111-1111111/12121212/14141414/------------|
G|---------------------------------------------------------------------------|
C|---77777777/9-9-9-9/10101010\9-9-9-9-9-9-9-9/10101010/12121212/------------|
D|---------------------------------------------------------------------------|

4x each is not the count for all of em, listen to the song to figure out the timing.

d|-----------------------------------------------------------------------------|
A|-----------------------------------------------------------------------------|
F|--16161616/17171717\16161616-9999/1111111/12121212/14141414--5555\4444-------|
G|-----------------------------------------------------------------------------|
C|--14141414/17171717\14141414-7777/9-9-9-9/10101010/12121212--3333\2222-------|
D|-----------------------------------------------------------------------2/12\-|

Double Time.
d|---------------------------------------------------------------------------|
A|---------------------------------------------------------------------------|
F|---------------------------------------------------------------------------|
G|-----------------7---------------------------------------------------------|\
C|-----6-9-7-----9---10-----7h9-----10-7-6-----7-10-9-7-6-9-7-6--------------| \
D|-000-------000--------000-----000--------000-------------------------------|  \
										 2x
d|---------------------------------------------------------------------------|  /
A|---------------------------------------------------------------------------| /
F|---------------------------------------------------------------------------|/
G|-----------------7---------------------------------------------------------|
C|-----6-9-7-----9---10-----7h9-----10-7-6-----6-7-6-----9-7-6---------------|
D|-000-------000--------000-----000--------000-------8-7---------------------|

d|---------------------------------------------------------------------------|
A|---------------------------------------------------------------------------|
F|--4--6/7-6--7-9-11/12-11--4--6-7-------------------------------------------|
G|---------------------------------5-4---------------------------------------|
C|--2--4/5-4--5-7-9-/10-9---2--4-5-------------------------------------------|
D|---------------------------------3-2---------------------------------------|

SOLO
d|---------------------------------------------------------------------------|
A|---------------------------------------------------------------------------|
F|------------9-9FB11R9--11-12--14-14FB16R14-----7-9--9FB11-9FB11--9FB11R9---|
G|------7h9~~--------------------------------7h9-----------------------------|
C|--9\-----------------------------------------------------------------------|
D|---------------------------------------------------------------------------|

d|---------------------------------------------------------------------------|
A|---------------------------------------------------------------------------|
F|--9\7\5\4--3-3FB5R3~~------------------------------------------------------|
G|---------------------------------------------------------------------------|
C|---------------------------------------------------------------------------|
D|---------------------------------------------------------------------------|

d|---------------------------------------------------------------------------|
A|---------------------------------------------------------------------------|
F|------------9-9FB11R9--11-12--14-14FB16R14-----lol good luck idk-----------|
G|------7h9~~----------------------------------------------------------------|
C|---------------------------------------------------------------------------|
D|---------------------------------------------------------------------------|

OUTRO
d|----------------------------|
A|----------------------------|
F|----------------------------|
G|----------------------------|
C|----------------------------|
D|-000-000--000-000-000-------|
   --- ---      --- ---

--- = triplets



let ring throughout
d|------------------------|
A|-----7----~-------------|
F|-------9--~-------------|
G|---------9~-------------|
C|------------------------|
D|------------------------|



| /  slide up
| \  slide down
| h  hammer-on
| p  pull-off
| ~  vibrato
| +  harmonic
| x  Mute note
================
Suggest correction
comments
print report bad tab
13 comments total. Showing first comments.
-2 reply
Guitarist_24 51 Apr 27, 2007 01:27 PM

the tuning is wrong.

+2 reply
legions 142 May 28, 2007 10:17 PM

no it's not.

0 reply
sm0ke5150 31 May 29, 2007 04:22 AM

Please rate for fair stars

guest
You may want to rate the tab now too:
select rating
Wanna post a correction for this tab? Suggest correction