Oops, an error
Loading. Please wait.

For You tab

2,152 views 39 this week
2 commentsread comments
1 2 3 4 5
1 last vote to show rating
add to favorites
×
Save as Personal and add changes to this tab that will be seen only by you. Learn more ›
×
You can save this tab as Personal to edit and correct it or add notes. All changes will be seen only by you. Learn more »
launch autoscroll
font size
0
reset
how to read this tab
guitar tuner
edit
Autoscroll
slow
fast
+/-
esc
set tempo
stop
Artist: All That Remains 
Song: For You


[Intro 2x] Acoustic Guitar

c#|---------------0-0-0-0-0--------------------0-0-0-0-0-------|
G#|--------5------5-5-5-5-5--------------------0-0-0-0-0-------|
E |-----8-------8/6-6-6-6-6-------11----11/9---9-9-9-9-9-------|
B |---6---6--6--6-6-6-6-6-6-----9---9---9------9-9-9-9-9-------|
F#|-4-----------4-4-4-4-4-4--/7---------7------7-7-7-7-7-------|
C#|------------------------------------------------------------|


c#|----------0----0-0--0-0----------0-------------0-0--0-0------|
G#|--------0---0--0-0--0-0--------0---0-------0---0-0--0-0------|
E |------2--------2/4--4/2------2-----------2-----2/4--4/2------|
B |----2----------2/4--4/2----2-----------2-------2/4--4/2------|
F#|--0------------0-0--0-0--0-----------0---------0-0--0-0------|
C#|-------------------------------------------------------------| 

 [Verse] Acoustic Guitar

c#|---------------0-0-0-0-0--------------------0-0-0-0-0-------|
G#|--------5------5-5-5-5-5--------------------0-0-0-0-0-------|
E |-----8-------8/6-6-6-6-6-------11----11/9---9-9-9-9-9-------|
B |---6---6--6--6-6-6-6-6-6-----9---9---9------9-9-9-9-9-------|
F#|-4-----------4-4-4-4-4-4--/7---------7------7-7-7-7-7-------|
C#|------------------------------------------------------------|

c#|----------0----0-0--0-0----------0-------------0-0--0-0------|
G#|--------0---0--0-0--0-0--------0---0-------0---0-0--0-0------|
E |------2--------2/4--4/2------2-----------2-----2/4--4/2------|
B |----2----------2/4--4/2----2-----------2-------2/4--4/2------|
F#|--0------------0-0--0-0--0-----------0---------0-0--0-0------|
C#|-------------------------------------------------------------| 

c#|---------------0-0-0-0-0--------------------0-0-0-0-0-------|
G#|--------5------5-5-5-5-5--------------------0-0-0-0-0-------|
E |-----8-------8/6-6-6-6-6-------11----11/9---9-9-9-9-9-------|
B |---6---6--6--6-6-6-6-6-6-----9---9---9------9-9-9-9-9-------|
F#|-4-----------4-4-4-4-4-4--/7---------7------7-7-7-7-7-------|
C#|------------------------------------------------------------|

c#|----------0----0-0--0-0--2-2-2-2--0-0-0-0--2-2-2----|
G#|--------0---0--0-0--0-0--3-3-3-3--3-3-3-3--3-3-3----|
E |------2--------2/4--4/2--4-4-4-4--4-4-4-4--4-4-4----|
B |----2----------2/4--4/2--4-4-4-4--4-4-4-4--4-4-4----|
F#|--0------------0-0--0-0--2-2-2-2--2-2-2-2--2-2-2----|
C#|----------------------------------------------------| 

[Pre Chorus] Acoustic Guitar

c#|----------------------------------------------------------------------|
G#|-0--------3--------------------------0--------3-----------------------|
E |-2--------4--------8--------9--------2--------4--------8--------9-----|
B |-2--------4--------6--------9--------2--------4--------6--------9-----|
F#|-0--------2--------4--------7--------0--------2--------4--------7-----|
C#|----------------------------------------------------------------------|
   
[Pre Chorus] Electric Guitar

    . . . . . . . .  . . . . . . . .  . . . . . . . .  . . . . . . . .
c#|------------------------------------------------------------------------|
G#|-0-0-0-0-0-0-0-0--------------------------------------------------------|
E |-2-2-2-2-2-2-2-2--4-4-4-4-4-4-4-4--8-8-8-8-8-8-8-8--8-8-8-8-8-8-8-8-----|
B |-2-2-2-2-2-2-2-2--4-4-4-4-4-4-4-4--6-6-6-6-6-6-6-6--7-7-7-7-7-7-7-7-----|
F#|-0-0-0-0-0-0-0-0--2-2-2-2-2-2-2-2--4-4-4-4-4-4-4-4--6-6-6-6-6-6-6-6-----|
C#|------------------------------------------------------------------------|


 . . . . . . . .  . . . . . . . .  . . . . . . . .  . . . . . . . .
c#|------------------------------------------------------------------------|
G#|-0-0-0-0-0-0-0-0--------------------------------------------------------|
E |-2-2-2-2-2-2-2-2--4-4-4-4-4-4-4-4--8-8-8-8-8-8-8-8--9-------------------|
B |-2-2-2-2-2-2-2-2--4-4-4-4-4-4-4-4--6-6-6-6-6-6-6-6--9-------------------|
F#|-0-0-0-0-0-0-0-0--2-2-2-2-2-2-2-2--4-4-4-4-4-4-4-4--7-------------------|
C#|------------------------------------------------------------------------|   

[Chorus] Electric Guitar

c#|--------------------------------------------------------------|
G#|-0--0--0------------------------------------------------------|
E |-2--2--2---4--4--4---8--8--8---8--8--8------------------------|
B |-2--2--2---4--4--4---6--6--6---7--7--7------------------------|
F#|-0--0--0---2--2--2---4--4--4---4--4--4------------------------|
C#|--------------------------------------------------------------|

c#|--------------------------------------------------------------|
G#|-0--0--0---------------------------------0--------------------|
E |-2--2--2---4--4--4---8--8--8---8--8--8---2----4---------------|
B |-2--2--2---4--4--4---6--6--6---7--7--7---2----4---------------|
F#|-0--0--0---2--2--2---4--4--4---4--4--4---0----2---------------|
C#|--------------------------------------------------------------|

[Intro Riff] Acoustic Guitar

c#|---------------0-0-0-0-0--------------------0-0-0-0-0-------|
G#|--------5------5-5-5-5-5--------------------0-0-0-0-0-------|
E |-----8-------8/6-6-6-6-6-------11----11/9---9-9-9-9-9-------|
B |---6---6--6--6-6-6-6-6-6-----9---9---9------9-9-9-9-9-------|
F#|-4-----------4-4-4-4-4-4--/7---------7------7-7-7-7-7-------|
C#|------------------------------------------------------------|


c#|----------0----0-0--0-0----------0-------------0-0--0-0------|
G#|--------0---0--0-0--0-0--------0---0-------0---0-0--0-0------|
E |------2--------2/4--4/2------2-----------2-----2/4--4/2------|
B |----2----------2/4--4/2----2-----------2-------2/4--4/2------|
F#|--0------------0-0--0-0--0-----------0---------0-0--0-0------|
C#|-------------------------------------------------------------|


 [Verse] Acoustic Guitar

c#|---------------0-0-0-0-0--------------------0-0-0-0-0-------|
G#|--------5------5-5-5-5-5--------------------0-0-0-0-0-------|
E |-----8-------8/6-6-6-6-6-------11----11/9---9-9-9-9-9-------|
B |---6---6--6--6-6-6-6-6-6-----9---9---9------9-9-9-9-9-------|
F#|-4-----------4-4-4-4-4-4--/7---------7------7-7-7-7-7-------|
C#|------------------------------------------------------------|

c#|----------0----0-0--0-0----------0-------------0-0--0-0------|
G#|--------0---0--0-0--0-0--------0---0-------0---0-0--0-0------|
E |------2--------2/4--4/2------2-----------2-----2/4--4/2------|
B |----2----------2/4--4/2----2-----------2-------2/4--4/2------|
F#|--0------------0-0--0-0--0-----------0---------0-0--0-0------|
C#|-------------------------------------------------------------| 

c#|---------------0-0-0-0-0--------------------0-0-0-0-0-------|
G#|--------5------5-5-5-5-5--------------------0-0-0-0-0-------|
E |-----8-------8/6-6-6-6-6-------11----11/9---9-9-9-9-9-------|
B |---6---6--6--6-6-6-6-6-6-----9---9---9------9-9-9-9-9-------|
F#|-4-----------4-4-4-4-4-4--/7---------7------7-7-7-7-7-------|
C#|------------------------------------------------------------|

c#|----------0----0-0--0-0--2-2-2-2--0-0-0-0--2-2-2----|
G#|--------0---0--0-0--0-0--3-3-3-3--3-3-3-3--3-3-3----|
E |------2--------2/4--4/2--4-4-4-4--4-4-4-4--4-4-4----|
B |----2----------2/4--4/2--4-4-4-4--4-4-4-4--4-4-4----|
F#|--0------------0-0--0-0--2-2-2-2--2-2-2-2--2-2-2----|
C#|----------------------------------------------------| 

[Pre Chorus] Acoustic Guitar

c#|----------------------------------------------------------------------|
G#|-0--------3--------------------------0--------3-----------------------|
E |-2--------4--------8--------9--------2--------4--------8--------9-----|
B |-2--------4--------6--------9--------2--------4--------6--------9-----|
F#|-0--------2--------4--------7--------0--------2--------4--------7-----|
C#|----------------------------------------------------------------------|
   
[Pre Chorus] Electric Guitar

    . . . . . . . .  . . . . . . . .  . . . . . . . .  . . . . . . . .
c#|------------------------------------------------------------------------|
G#|-0-0-0-0-0-0-0-0--------------------------------------------------------|
E |-2-2-2-2-2-2-2-2--4-4-4-4-4-4-4-4--8-8-8-8-8-8-8-8--8-8-8-8-8-8-8-8-----|
B |-2-2-2-2-2-2-2-2--4-4-4-4-4-4-4-4--6-6-6-6-6-6-6-6--7-7-7-7-7-7-7-7-----|
F#|-0-0-0-0-0-0-0-0--2-2-2-2-2-2-2-2--4-4-4-4-4-4-4-4--6-6-6-6-6-6-6-6-----|
C#|------------------------------------------------------------------------|


 . . . . . . . .  . . . . . . . .  . . . . . . . .  . . . . . . . .
c#|------------------------------------------------------------------------|
G#|-0-0-0-0-0-0-0-0--------------------------------------------------------|
E |-2-2-2-2-2-2-2-2--4-4-4-4-4-4-4-4--8-8-8-8-8-8-8-8--9-------------------|
B |-2-2-2-2-2-2-2-2--4-4-4-4-4-4-4-4--6-6-6-6-6-6-6-6--9-------------------|
F#|-0-0-0-0-0-0-0-0--2-2-2-2-2-2-2-2--4-4-4-4-4-4-4-4--7-------------------|
C#|------------------------------------------------------------------------|   

[Chorus] Electric Guitar

c#|--------------------------------------------------------------|
G#|-0--0--0------------------------------------------------------|
E |-2--2--2---4--4--4---8--8--8---8--8--8------------------------|
B |-2--2--2---4--4--4---6--6--6---7--7--7------------------------|
F#|-0--0--0---2--2--2---4--4--4---4--4--4------------------------|
C#|--------------------------------------------------------------|

c#|--------------------------------------------------------------|
G#|-0--0--0---------------------------------0--------------------|
E |-2--2--2---4--4--4---8--8--8---8--8--8---2----4---------------|
B |-2--2--2---4--4--4---6--6--6---7--7--7---2----4---------------|
F#|-0--0--0---2--2--2---4--4--4---4--4--4---0----2---------------|
C#|--------------------------------------------------------------|

[Bridge/Solo Rhythm] Electric Guitar

c#|--------------------------------------------------------------|
G#|---------------------------0-0-0-0-0-0------------------------|
E |---------------------------2-2-2-2-2-2--4-4-4-4-4-4-----------|
B |-4-4-4-4-4-4--6-6-6-6-6-6--2-2-2-2-2-2--4-4-4-4-4-4-----------|
F#|-4-4-4-4-4-4--6-6-6-6-6-6--0-0-0-0-0-0--2-2-2-2-2-2-----------|
C#|-2-2-2-2-2-2--4-4-4-4-4-4-------------------------------------|

c#|--------------------------------------------------------------|
G#|---------------------------0-0-0-0-0-0------------------------|
E |---------------------------2-2-2-2-2-2--4-4-4-4-4-4-----------|
B |-4-4-4-4-4-4--6-6-6-6-6-6--2-2-2-2-2-2--4-4-4-4-4-4-----------|
F#|-4-4-4-4-4-4--6-6-6-6-6-6--0-0-0-0-0-0--2-2-2-2-2-2-----------|
C#|-2-2-2-2-2-2--4-4-4-4-4-4-------------------------------------|

[Guitar Solo] Electric Guitar

c#|-----------------------------------------------------------------|
G#|------------------------------------------20b--20b-20b-----------|
E |-16b--16b-16-16*~-16-16-16-16-16-16-16brb------------------------|
B |-----------------------------------------------------------------|
F#|-----------------------------------------------------------------|
C#|-----------------------------------------------------------------|

c#|-------14-16-14---14-14h16p14----16/19~--16br16----16br16--------|
G#|-14-17----------17------------17----------------17--------17-24~-|
E |-----------------------------------------------------------------|
B |-----------------------------------------------------------------|
F#|-----------------------------------------------------------------|
C#|-----------------------------------------------------------------|

[Acoustic Guitar] Part after the solo

c#|----0--------0---------------------------------------------------|
G#|----0--------4---------------------------------------------------|
E |----2--------4---------------------------------------------------|
B |----2--------4---------------------------------------------------|
F#|----0--------2---------------------------------------------------|
C#|-----------------------------------------------------------------|

[2nd Chorus] Electric Guitar

c#|--------------------------------------------------------------|
G#|---------------------0--0--0----------------------------------|
E |-8--8--8---8--8--8---2--2--2---4--4--4------------------------|
B |-6--6--6---7--7--7---2--2--2---4--4--4------------------------|
F#|-4--4--4---4--4--4---0--0--0---2--2--2------------------------|
C#|--------------------------------------------------------------|

c#|--------------------------------------------------------------|
G#|---------------------0--0--0----------------------------------|
E |-8--8--8---8--8--8---2--2--2---4--4--4------------------------|
B |-6--6--6---7--7--7---2--2--2---4--4--4------------------------|
F#|-4--4--4---4--4--4---0--0--0---2--2--2------------------------|
C#|--------------------------------------------------------------|

c#|--------------------------------------------------------------|
G#|---------------------0----------------------------------------|
E |-8--8--8---8--8--8---2----------------------------------------|
B |-6--6--6---7--7--7---2----------------------------------------|
F#|-4--4--4---4--4--4---0----------------------------------------|
C#|--------------------------------------------------------------|


[Outro] Acoustic Guitar

c#|--------------0-----------------------------------------------|
G#|---------5----5-----------------------------------------------|
E |-----8-----8--6-----------------------------------------------|
B |---6---6------6-----------------------------------------------|
F#|-4------------4-----------------------------------------------|
C#|--------------------------------------------------------------|
Suggest correction
Creating personal tab
Creating personal tab
You can edit any tab online and save it as your Personal.

You can edit, replace or remove any tab part or add personal notes – all changes will be seen only by you.

Personal tabs can be accessed anytime from any device, even offline.
Learn more »
Give kudos to tab author, rate the tab!
1 2 3 4 5
comments
print report bad tab
2 comments total.
0 reply
srcope20191 10 Aug 02, 2017 02:57 AM

wrong tune? it doesnt sound like the song

guest
You may want to rate the tab now too:
select rating
Wanna post a correction for this tab? Suggest correction