Oops, an error
Loading. Please wait.

For You chords

version 2
version 2

Whole song

424 views 6 this week
2 commentsread comments
1 2 3 4 5
2 more votes to show rating
add to favorites
×
Save as Personal and add changes to this tab that will be seen only by you. Learn more ›
×
You can save this tab as Personal to edit and correct it or add notes. All changes will be seen only by you. Learn more »
launch autoscroll
font size
0
reset
transpose
0
reset
simplify chords
display chords
guitar tuner
edit
Autoscroll
slow
fast
+/-
esc
set tempo
stop
Strumming
There is no strumming pattern for this song yet. and get +5 IQ
Hey there
yes i copied The intro form this Tab: https://tabs.ultimate-guitar.com/a/all_that_remains/for_you_tab.htm
And the lyrics from this side: http://www.azlyrics.com/lyrics/allthatremains/foryou.html
I taked de Chords also from the tab 'cause these are the original Chords From the song. 
I hope you understand this...

You can play the A# like This:x46850
                 or like this:x46650 The chord played in the intro like the 1st. one.
The 2nd. one is esier to play. Its your choise.
Sorry for my englisch ;D
Chords:
-------

   A# C# F# G# D#5 F5 A#5 G#5
C#|-0--0--0--0--x---x---x---x--------------------------------------------------|
G#|-5--0--0--0--x---x---0---x--------------------------------------------------|
E |-8--9--2--4--x---x---2---4--------------------------------------------------|
B |-6--9--2--4--4---6---2---4--------------------------------------------------|
F#|-4--7--0--2--4---6---0---2--------------------------------------------------|
C#|-x--x--x--x--2---4---x---x--------------------------------------------------|




Intro 2x:
---------
   A#                       C#
c#|---------------0-0-0-0-0--------------------0-0-0-0-0-------|
G#|--------5------5-5-5-5-5--------------------0-0-0-0-0-------|
E |-----8-------8/6-6-6-6-6-------11----11/9---9-9-9-9-9-------|
B |---6---6--6--6-6-6-6-6-6-----9---9---9------9-9-9-9-9-------|
F#|-4-----------4-4-4-4-4-4--/7---------7------7-7-7-7-7-------|
C#|------------------------------------------------------------|

   F#                      F#
c#|----------0----0-0--0-0----------0-------------0-0--0-0------|
G#|--------0---0--0-0--0-0--------0---0-------0---0-0--0-0------|
E |------2--------2/4--4/2------2-----------2-----2/4--4/2------|
B |----2----------2/4--4/2----2-----------2-------2/4--4/2------|
F#|--0------------0-0--0-0--0-----------0---------0-0--0-0------|
C#|-------------------------------------------------------------|


Verse:
------
A#                             C#                   F#
Your plane is boarding, got to cross the ocean all alone
F#
My heart is stone
A#                         C#                             F#
You need to figure out the things that plague you here at home
F#
I'll carry on


Pre-Chorus:
-----------
F#
Sometimes, it's one thing
G#
And next time, it's nothing
A#
It's more than mistrusting
C#
It ends up just crushing me
F#
Stop with the fighting
G#
I know it's the right thing
A#
I won't let you do this
C#
We have to get through this


Chorus:
-------
F#                           G#
So, say something, I'm not holding back
A#                                C#
Before the scene we made goes and fades to black
F#                                   G#
‘cause I can't wait while you think this through
A#                                   C#
We don't have endless time, remember who left who
C#             G#
‘cause I won't wait, won't wait for you


Verse:
------
A#              C#
Your lifeless eyes don't hold the
F#                   F#
Same desire anymore, I can't ignore
C#                     G#              F#
So long I've wondered, but I think now I know
F#
You're not coming home


Pre-Chorus:
-----------
F#
Sometimes, it's one thing
G#
And next time, it's nothing
A#
It's more than mistrusting
C#
It ends up just crushing me
F#
Stop with the fighting
G#
I know it's the right thing
A#
I won't let you do this
C#
We have to get through this


Chorus:
-------

F#                           G#
So, say something, I'm not holding back
A#                                C#
Before the scene we made goes and fades to black
F#                                   G#
‘cause I can't wait while you think this through
A#                                   C#
We don't have endless time, remember who left who
C#                G#                    D#5
‘cause I won't wait, won't wait for you


Bridge:
-------
D#5                  F5
Put my heart in your hands
                   F#5
Committed my whole life to you
                      G#5
And all you had to say
                 D#5
See you in a few days
                   F5
But days turn into months
                    F#5  
This isn't what you promised me
                     G#5
I've gotta let you go
                     D#5
Or just find another way

Solo:
-----
F5 F#5 G#5
D#5 F5 F#5 G#5

Pre-Corus:
----------
F#                           G#
So, say something, I'm not holding back
A# C#

Chorus:
-------
F#                           G#
So, say something, I'm not holding back
A#                                C#
Before the scene we made goes and fades to black
F#                                   G#
‘cause I can't wait while you think this through
A#                                   C#
We don't have endless time, remember who left who
C#             G#
‘cause I won't wait, won't wait for you

            
            
Suggest correction
Creating personal tab
Creating personal tab
You can edit any tab online and save it as your Personal.

You can edit, replace or remove any tab part or add personal notes – all changes will be seen only by you.

Personal tabs can be accessed anytime from any device, even offline.
Learn more »
Give kudos to tab author, rate the tab!
1 2 3 4 5
comments
print report bad tab
2 comments total.
+1 reply
htidracing2 818 Mar 23, 2016 07:36 PM

The chords in the first verse are too early, and the G# at the end of the chorus is a word too late.

guest
You may want to rate the tab now too:
select rating
Wanna post a correction for this tab? Suggest correction