Oops, an error
Loading. Please wait.

Forever In Your Hands Tab

version 1
version 1

Acoustic

Whole song

Interactive

17,960 views 9 this week
11 commentsread comments
1 2 3 4 5
accurate
x 7
add to favorites
launch autoscroll
font size
0
reset
how to read this tab
guitar tuner
Tab Pro tools
  • play this tab
  • loop segment
  • change instrument
  • show fretboard
  • metronome
×
Best way to learn
"Forever In Your Hands"
Autoscroll
slow
fast
+/-
esc
set tempo
stop
Contributor
Difficulty
novice
Forever In Your Hands-Acoustic
All That Remains
Tuning- C# F# B E G# C#
Gtr 1-panned left
Gtr 2-panned right

Verse (one guitar plays this and another plays same thing string up using open notes)
|-------------------------------------------------------------------------------|
|-----5---------5---------5----------5--------5--------5--------12---------9----|
|----5—5-------5-5------5--5--------5--5-----5-5------5-5------12-12------9-9---|
|---7----7----7---7----7-----7-----7----7---7---7----7---7----12---12----9---9--|
|--7------7--7-----7--8--------8--8------8-5------5-5-----5--10-----10--7-----7-|
|-5---------5-------5------------5--------5--------5-------10---------7---------|
Then same chords but strumming not arpeggios

Pre-chorus  Gtr 2 stops, Gtr 1 plays this
|-------------------5-7-8-7-------|
|-------------5---5---------8~----|
|------5----5----5----------------|
|----7----7-----7-----------------|
|---7----8------------------------|
|-5-------------------------------|

Chorus  Gtr 1 first repeat holds out prechorus note and comes in on second chord. Below
second repeat.                †first time starts here
|------------------------------------------------------------------------|
|----8--------8-------8--------8----8----8---8---8----8---8--8--8—8------|
|---5-5------5-5-----5--5-----5-5----5----5---5---5----7---7--7—7---7----|
|--7---7----7---7---7----7---7---7----7----7---7----7---7---7--7--7--7---|
|-7------7-7-----7-8------8-8-----8----8----8---8----8----------------8--|
|5--------5-------5--------5---------------------------------------------|

Chorus Gtr 2
|-0---000000-0---00000-0---00000-0---0000000-|
|-1---111111-1---11111-0---00000-0---0000000-|
|-2---222222-2---00000-7---77777-4---4444444-|
|-3---222222-0---22222-5---55555-2---2222222-|
|-0---000000-0---33333-0---00000-0---0000000-|
|--------------------------------------------|

|-0---000000-0---00000-00000000000000000000005555555555-|
|-1---111111-1---11111-00000000000000008888888888888888-|
|-2---222222-2---00000-77777777777777777777777777777777-|
|-3---222222-0---22222-55555555555555555555555555555555-|
|-0---000000-0---33333-00000000000000000000005555555555-|
|-------------------------------------------------------|

Transition Rythem
|---------------------|
|---------------------|
|---------------------|
|-7---10--9---12---55-|
|-7---10--9---12---55-|
|-5---8---7---10---33-|


Transition Lead
|---------------------------8-7--------8-7----------|
|---------5---5-8-10-8~5-5--------5-5-------10-8----|
|----5---5--5-----------5-5------5-5-5--------------|
|---7---7--7----------------------------------------|
|--7---8--------------------------------------------|
|-5-------------------------------------------------|


Solo (left guitar)
|---------------------------------------5-3~/8-7~/12-10~~~19~~15-15-17~--------------|
|-------------------------------------5-----------------------17-17-17~--------------|
|-79~~5-7-9~7-5-7~5-4-5-4-4~-5-4-----------------------------------------------------|
|------------------------7-------3-5~------------------------------------------------|
|------------------------------------------------------------------------------------|
|------------------------------------------------------------------------------------|

|-7-7--8~----------------8~8-7---10--12--10~~17-12----------------------------------|
|-8-8--8~----5—5-6-5-6-8-8~8-7---10--12--10~~-----15-12---------------5-5-6-6/8-----|
|--------5-7-—7----------------------------------------14-12-79-7~-5-7-7------------|
|-----------------------------------------------------------------------------------|
|-----------------------------------------------------------------------------------|
|-----------------------------------------------------------------------------------|

Post Solo Transition
|--------------7-8-7-------------5-------------------7--8-7-5~~10/12\10~12-10-8-7-5~~---|
|---------5---5-----8~~-----5-6-8-8-6-5----------5--5-----------------------------------|
|----5---5---5-----------5-7----------------5---5--5------------------------------------|
|---7---7---7------------------------------7---7--7-------------------------------------|
|--7---8----------------------------------7---8-----------------------------------------|
|-5--------------------------------------5----------------------------------------------|


Order:
Verse x2 arpeggios
Verse x1 chords
Prechorus
Chorus (Gtr 1 x2 .Gtr 2 x1)
Transition (x4 Gtr 1) (x2 Gtr 2)
Verse x1 arpeggios
Verse x1 chords
Prechorus
Chorus (Gtr 1 x2 . Gtr 2 x1)
Transition x4 (both play tranition rythem)
Solo (while Gtr 2 plays transition rythem)
Post Solo Transition (Gtr 1)      Gtr 2 plays transition lead x2
Chorus (Gtr 1 x2 . Gtr 2 x1)
Verse Chords x2

I don’t know if all of this is right but it’s close and since it’s the first tab up for
song I had nothing to look off of and its my first tab. If u fix any sections let me
at timck@localnet.com
comments
print report bad tab
11 comments total. Showing first comments.
0 reply
lmpguitarist wrote on September 4 2009, 02:35 pm

whoops, the first quarter of the solo should all be up one string.

0 reply
lmpguitarist wrote on September 7 2009, 12:14 pm

i fixed it so ignore previous comment

+1 reply
hildesaw wrote on October 9 2009, 03:44 pm

Pretty friggin' good. Could you try the electric version?

I want to post or [tab]
guest
You may want to rate the tab now too:
select rating
Please do not post tabs as comments. Select "correction" instead!