Oops, an error
Loading. Please wait.

Forever In Your Hands Chords

version 2
version 2

Whole song

Interactive

310 views 1 this week
2 commentsread comments
1 2 3 4 5
x 6
add to favorites
launch autoscroll
font size
0
reset
transpose
0
reset
display chords
guitar tuner
Autoscroll
slow
fast
+/-
esc
set tempo
stop
Help us to improve Ultimate-Guitar.com Take our survey!
×
Author
Difficulty
intermediate
Intro:    F# D A F# E     D F# C# D E
       e|---------------------------------|
       B|---------------------------------|
       G|---7-------------7---6-7---------| X4
       D|-4-7-7-4-2-2-222-7-4-6-7-2-2-222-|
       A|-2-5-7-4-2-2-222-5-4-4-5-2-2-222-|
       E|-2---5-2-0-0-000---2-----0-0-000-|


Verse: e|------------------------------------------------------------------------|
       B|------------------------------------------------------------------------|
       G|--------------------777-xxxxx-7-xx-797--------------------666-66--------| X2
       D|-444-xxxxx-4-xx-444-777-xxxxx-7-xx-797-444-xxxxx-4-xx-444-666-66-222-22-|
       A|-444-xxxxx-4-xx-444-555-xxxxx-5-xx-575-444-xxxxx-4-xx-444-444-44-222-22-|
       E|-222-xxxxx-2-xx-222--------------------222-xxxxx-2-xx-222--------000-00-|

       
          I know, that I can stand my head high. Forget not where I fall. Still I find why and reason.

Pre-Chorus: e|--------------------------------------------------------------------------------------------|
            B|--------------------------------------------------------------------------------------------|
            G|--------------------777-xxxxx-7-xx-797--------------------666-666---------------------------| 
            D|-444-xxxxx-4-xx-444-777-xxxxx-7-xx-797-444-xxxxx-4-xx-444-666-666-222-222-4~-----4-----4----|
            A|-444-xxxxx-4-xx-444-555-xxxxx-5-xx-575-444-xxxxx-4-xx-444-444-444-222-222-4~---4---4-----4--|
            E|-222-xxxxx-2-xx-222--------------------222-xxxxx-2-xx-222---------000-000-2~-2-------2------| 

               Yet that conflict's still filling me with mistrust, venom inside of me.

               I am not the man that you see, just look inside me.

Chorus: e|-------------------------------------------------------------------|
        B|-------------------------------------------------------------------|
        G|-7-777-777-777-776-666-666-666-66----------------------------------|
        D|-7-777-777-777-776-666-666-666-66-2-222-222-222-224-444-444-444-44-|
        A|-5-555-555-555-554-444-444-444-44-2-222-222-222-224-444-444-444-44-|
        E|----------------------------------0-000-000-000-002-222-222-222-22-|

            Trust in me, the way I trusted you. I know, we could have done this together.       

        e|--------------------------------------------------------------------|
        B|--------------------------------------------------------------------|
        G|-7-777-777-777-776-666-666-666-66-----------------------------------|
        D|-7-777-777-777-776-666-666-666-66-222222222222222222222222222222222-|
        A|-5-555-555-555-554-444-444-444-44-222222222222222222222222222222222-|
        E|----------------------------------000000000000000000000000000000000-|

           Believe in me, like I believed in you. My heart would be forever in you hands.

Pre-Verse: e|---------------------------------|
           B|---------------------------------|
           G|---7-------------7---6-7---------| X2
           D|-4-7-7-4-2-2-222-7-4-6-7-2-2-222-|
           A|-2-5-7-4-2-2-222-5-4-4-5-2-2-222-|
           E|-2---5-2-0-0-000---2-----0-0-000-|

Verse: e|------------------------------------------------------------------------|
       B|------------------------------------------------------------------------|
       G|--------------------777-xxxxx-7-xx-797--------------------666-66--------| 
       D|-444-xxxxx-4-xx-444-777-xxxxx-7-xx-797-444-xxxxx-4-xx-444-666-66-222-22-|
       A|-444-xxxxx-4-xx-444-555-xxxxx-5-xx-575-444-xxxxx-4-xx-444-444-44-222-22-|
       E|-222-xxxxx-2-xx-222--------------------222-xxxxx-2-xx-222--------000-00-|

          How I, oh how I, miss February still. Now that this becomes the moment of all our failures.

Pre-Chorus: e|--------------------------------------------------------------------------------------------|
            B|--------------------------------------------------------------------------------------------|
            G|--------------------777-xxxxx-7-xx-797--------------------666-666---------------------------| 
            D|-444-xxxxx-4-xx-444-777-xxxxx-7-xx-797-444-xxxxx-4-xx-444-666-666-222-222-4~-----4-----4----|
            A|-444-xxxxx-4-xx-444-555-xxxxx-5-xx-575-444-xxxxx-4-xx-444-444-444-222-222-4~---4---4-----4--|
            E|-222-xxxxx-2-xx-222--------------------222-xxxxx-2-xx-222---------000-000-2~-2-------2------| 

               Yet that conflict's still filling me with mistrust, venom inside of me.
             
               I am, not the man that you see, just look inside me.

Chorus: e|-------------------------------------------------------------------|
        B|-------------------------------------------------------------------|
        G|-7-777-777-777-776-666-666-666-66----------------------------------|
        D|-7-777-777-777-776-666-666-666-66-2-222-222-222-224-444-444-444-44-|
        A|-5-555-555-555-554-444-444-444-44-2-222-222-222-224-444-444-444-44-|
        E|----------------------------------0-000-000-000-002-222-222-222-22-|
        
           Trust in me, the way I trusted you. I know, we could have done this together.

        e|--------------------------------------------------------------------|
        B|--------------------------------------------------------------------|
        G|-7-777-777-777-776-666-666-666-66-----------------------------------|
        D|-7-777-777-777-776-666-666-666-66-222222222222222222222222222222222-|
        A|-5-555-555-555-554-444-444-444-44-222222222222222222222222222222222-|
        E|----------------------------------000000000000000000000000000000000-|

           Believe in me, like I believed in you. My heart would be forever in your hands.

Solo: e|---------------------------------|
      B|---------------------------------|
      G|---7-------------7---6-7---------| X4
      D|-4-7-7-4-2-2-222-7-4-6-7-2-2-222-|
      A|-2-5-7-4-2-2-222-5-4-4-5-2-2-222-|
      E|-2---5-2-0-0-000---2-----0-0-000-|

Bridge: e|-----------------------------------|
        B|-----------------------------------|
        G|------------------7-777-779-999-99-| X2
        D|-4-444-444-444-44-7-777-779-999-99-|
        A|-4-444-444-444-44-5-555-557-777-77-|
        E|-2-222-222-222-22------------------|


Chorus: e|-------------------------------------------------------------------|
        B|-------------------------------------------------------------------|
        G|-7-777-777-777-776-666-666-666-66----------------------------------|
        D|-7-777-777-777-776-666-666-666-66-2-222-222-222-224-444-444-444-44-|
        A|-5-555-555-555-554-444-444-444-44-2-222-222-222-224-444-444-444-44-|
        E|----------------------------------0-000-000-000-002-222-222-222-22-|

           Trust in me, the way I trusted you. I know, we could have done this together.

        e|--------------------------------------------------------------------|
        B|--------------------------------------------------------------------|
        G|-7-777-777-777-776-666-666-666-66-----------------------------------|
        D|-7-777-777-777-776-666-666-666-66-222222222222222222222222222222222-|
        A|-5-555-555-555-554-444-444-444-44-222222222222222222222222222222222-|
        E|----------------------------------000000000000000000000000000000000-|
        
           Believe in me, like I believed in you. My heart would be forever in your hands.

Outro: e|------------------------------------------------------------------------|
       B|------------------------------------------------------------------------|
       G|--------------------777-xxxxx-7-xx-797--------------------666-66--------| 
       D|-444-xxxxx-4-xx-444-777-xxxxx-7-xx-797-444-xxxxx-4-xx-444-666-66-222-22-|
       A|-444-xxxxx-4-xx-444-555-xxxxx-5-xx-575-444-xxxxx-4-xx-444-444-44-222-22-|
       E|-222-xxxxx-2-xx-222--------------------222-xxxxx-2-xx-222--------000-00-|

                                                                   Forever in your hands!

       e|------------------------------------------------------------------|
       B|------------------------------------------------------------------|
       G|--------------------777-xxxxx-7-xx-797--------------------666-----| 
       D|-444-xxxxx-4-xx-444-777-xxxxx-7-xx-797-444-xxxxx-4-xx-444-666-222-|
       A|-444-xxxxx-4-xx-444-555-xxxxx-5-xx-575-444-xxxxx-4-xx-444-444-222-|
       E|-222-xxxxx-2-xx-222--------------------222-xxxxx-2-xx-222-----000-|

Quite a nice medley of a song and use of Phil's softer, cleaner vocals which resonate more and better.
Suggest correction
comments
print report bad tab
2 comments total.
-1 reply
the_tabber_b 10 Jan 23, 2016 11:11 PM

didn't like this contribution

-1 reply
wasssup_tabbers 10 Jan 24, 2016 12:00 AM

didn't like this contribution

guest
You may want to rate the tab now too:
select rating
Wanna post a correction for this tab? Suggest correction