Oops, an error
Loading. Please wait.

Indictment Tab

version 2
version 2

Intro

Whole song

Interactive

3,029 views 1 this week
4 commentsread comments
1 2 3 4 5
2 more votes to show rating
add to favorites
launch autoscroll
font size
0
reset
how to read this tab
guitar tuner
Autoscroll
slow
fast
+/-
esc
set tempo
stop
Help us to improve Ultimate-Guitar.com Take our survey!
×
Author
Difficulty
intermediate
-------------------------------------------------------------------------------
                             SONG NAME - Band Name
-------------------------------------------------------------------------------
Tabbed by:WhiteWalls


Tuning:drop d

e|---------------------------------------------------------------------------|
B|---------------------------------------------------------------------------|
G|---------------------------------------------------------------------------|
D|---------------------------------------------------------------------------|
A|----------5h6p5--------8-6-5-3-5----------5h6p5--------3h5------1h3--------|
D|-00000000--------00000-----------00000000--------00000-----0000------------|

e|---------------------------------------------------------------------------|
B|---------------------------------------------------------------------------|
G|-------------------------------------------------------5-3-----------------|
D|---------------------------------------------------3-5-5-3-3---------------|
A|----------5h6p5--------8-6-5-3-5------5p3-----3p1--3-5-3-1-3---------------|
D|-00000000-------00000------------0000-----0000-----3-5-----3---------------|


| h  hammer-on
| p  pull-off

all ive got so far, the rest is coming soon
===============================================================================
Suggest correction
Give kudos to tab author, rate the tab!
1 2 3 4 5
comments
print report bad tab
4 comments total. Showing first comments.
0 reply
BurNW73 10 Apr 24, 2007 05:42 PM

I'm not sure if they do or not in this song, but All That Remains plays in a full step down, not drop D... So DAFCGD.

0 reply
vengance302 351 Oct 14, 2007 02:30 PM

they do use d tuning, not drop d.

0 reply
samshreds 10 Jul 07, 2008 08:41 PM

Besides the D tuning not drop D I think it looks pretty deec.

guest
You may want to rate the tab now too:
select rating
Wanna post a correction for this tab? Suggest correction