Oops, an error
Loading. Please wait.

Not Alone Tab

version 1
version 1

Intro

Whole song

14,111 views 1 this week
no commentswrite comment
1 2 3 4 5
please rate
add to favorites
launch autoscroll
font size
0
reset
how to read this tab
guitar tuner
Autoscroll
slow
fast
+/-
esc
set tempo
stop
Help us to improve Ultimate-Guitar.com Take our survey!
×
Not Alone by All That Remains, this is the duel guitar parts in the intro to the song

You can IM me at Shazam00000 if you have any comments about the tab or if you have 
you want to add to it

Guitar 1
 |               |               |               |
|----12--------------8-------------------------------8-----------|
|--------13--------------12----------10------12----------12------|
|------------14--------------9---9-------9-------9-----------9---|
|0---------------0-----------------------------------------------|
|----------------------------------------------------------------|
|----------------------------------------------------------------|

 |               |               |               |
|----12--------------8-------------------------------8-----------|
|--------13--------------12----------10------12----------12------|
|------------14--------------9---9-------9-------9-----------9---|
|0---------------0-----------------------------------------------|
|----------------------------------------------------------------|
|----------------------------------------------------------------|

Guitar 2
 |               |               |               |
|----------------------------------------------------------------|
|----------------------------------------------------------------|
|----------------------------------------------------------------|
|----------------------------------------------------------------|
|----------------------------------------------------------------|
|----------------------------------------------------------------|

 |               |               |               |
|----------------------------------------------------------------|
|----------------------------------------------------------------|
|15--14----------------------------------------------------------|
|--------15------------------17------15------14------12--14--10--|
|------------15--0---12--14------14------14------14--------------|
|----------------------------------------------------------------|
Suggest correction
Give kudos to tab author, rate the tab!
1 2 3 4 5
comments
print report bad tab
guest
You may want to rate the tab now too:
select rating
Please do not post tabs as comments. Select "correction" instead!