Oops, an error
Loading. Please wait.

Not Alone Tab

version 1
version 1

Whole song

72,337 views 18 this week
24 commentsread comments
1 2 3 4 5
accurate
x 19
add to favorites
launch autoscroll
font size
0
reset
how to read this tab
guitar tuner
Tab Pro tools
  • play this tab
  • loop segment
  • change instrument
  • show fretboard
  • metronome
×
Best way to learn
"Not Alone"
Autoscroll
slow
fast
+/-
esc
set tempo
stop
Contributor
Difficulty
advanced
All That Remains
Not Alone - #2 from- The Fall Of Ideals
Comments and Requests : hollowseedaxeman@hotmail.com
Tuning : D Standard ( D G C F A D ) low to high

pb= pre-bend the note
pm= palm muted
b= bend  r= release
T & T/= right hand tap & right hand tap then slide using right hand as well
~~ = vibrato

» Intro
(guitar 1)
|---12---------8----------------------------|
|------13--------12------10---12---13-10----|
|---------16--------9-------9----9-------9--|
|-------------------------------------------|
|-0----------0---------0--------------------|
|-------------------------------------------|
pm.          .         .

(guitar 2) ...enter second time...
|-------------------------------------------------|
|-------------------------------------------------|
|-16-14----------------------------------------12-|
|-------14-------------17----15----14-------14----|
|----------15-12-14-15----12----12----12-15-------|
|-------------------------------------------------|
            pm........    ..    ..    ..

» Verse
|--------------------------------------------------------------------|----|
|--------------------------------------------------------------------|----|
|--------------------------------------------------------------------|----|
|---------3----3--3---------2----------5----5--5---------3---------2-|----|
|---------3----3--3---------2----------5----5--5---------3---------2-|----|
|-0-0-0-0-----------0-0-0-0----0-0-0-0-----------0-0-0-0---0-0-0-0---|-8\-|
pm.......           .......    .......           .......   .......

» Pre-Chorus (Played ONLY before first Chorus)
|--------------------------------------------------------------------|
|--------------------------------------------------------------------|
|---------5----5--5---------4----------7----7--7---------5---------4-|
|---------5----5--5---------4----------7----7--7---------5---------4-|
|---------3----3--3---------2----------5----5--5---------3---------2-|
|-0-0-0-0-----------0-0-0-0----0-0-0-0-----------0-0-0-0---0-0-0-0---|
pm.......           .......    .......           .......   .......

» Chorus
(Guitar 1)
|----------------------3--------------------|--------------------------------------------------------------------------|
|----------------------3--------------------|--------------------------------------------------------------------------|
|----------------------5------5------5------|-10-10-------9---12---9---------------------------------------------------|
|-9------7------7------5------5------5------|--x--x-------x----x---x-----10-10-10-10---9---10----9---10----------------|
|-0--0-0-0--0-0-0--0-0-3--3-3-3--3-3-3--3-3-|--8--8-8-8-8-8-8--8-8-8-8-8--8--8--8--8------------------------7---7-5----|
|-------------------------------------------|-----------------------------------------10-x-10-x-10-x-10-x-x---------8\-|
   pm...    ...    ...    ...    ...    ...         .....   .    .   ...
   .    .    ...

(Guitar 2) let these notes ring together
|--12---------------12---------------15---------------15------------|
|-------13---------------13---------------13---------------13-------|
|------------16---------------16---------------16---------------16--|
|-------------------------------------------------------------------|
|-------------------------------------------------------------------|
|-------------------------------------------------------------------|


» Second Verse Ending Slide, into Interlude
|-----|
|-----|
|-----|
|-----|
|-----|
|-12\-|


» Interlude
(Guitar 1)
|-----------------------------------------------------------------------------|
|----------8---------------------------------------------------------8--------|
|------------9------10-9------9------9-----------7--------------9------9------|
|-7-9-10-7-----10-7------10-7---10-7-----10-7-10---10-7-10-9-10---10-----10-9-|
|-----------------------------------------------------------------------------|
|-----------------------------------------------------------------------------|


(Guitar 2)
|-----------------------------------------------------------------|
|---------5-------3-----------------------------------5-3-5-1-5-0-|
|-2-4-5-2---5-2-4---5-2-4-5-2---5---2---2-4-2---2---5-------------|
|-----------------------------2-------2-------2---2---------------|
|-----------------------------------------------------------------|
|-----------------------------------------------------------------|

» Solo RYTHYM PART
|-----------------------------------------------------------------------------------------|
|-----------------------------------------------------------------------------------------|
|-----------------------------------------------------------------------------------------|
|-2-------2------2------5-------5------5--------------------------------------------------|
|-0-------0------0------3-------3------3------3-------3------3------5-------5------5------|
|-----0-0----0-0----0-0-----0-0----0-0----0-0-1---0-0-1--0-0-1--0-0-3---0-0-3--0-0-3--0-0-|
    pm...    ...    ...     ...    ...    ...     ...    ...    ...     ...    ...    ...


» Solo Leads
(GUITAR 2)
|---------------------------------------------------------------|
|-15b-r--------------15b-r--------17b-r-15h17p13h15-b-r-b-r~----|
|--------17-16-17~----------19-17-------------------------------|
|---------------------------------------------------------------|
|---------------------------------------------------------------|
|---------------------------------------------------------------|

(GUITAR 1)
|-------------------------------------------------------------------------------------------------|
|-------------------------------------------------------------------------------------------------|
|-16b-r-16-14\12-14---------------------------14-16-17-14-16b-r---14-17b-r-16h17p14h16-b-r--b-r~--|
|---------------------------------14-15-17-17-----------------------------------------------------|
|---------------------14-15-17-17-----------------------------------------------------------------|
|-------------------------------------------------------------------------------------------------|
                    pm...................................

(Guitar 3 enters)
|-------------------------------------------------|
|--------------------------------10/12p-5h-6-h13/-|
|----------------------9/12p-5-7------------------|
|----------10/12p-5h7-----------------------------|
|--10p3h5-----------------------------------------|
|-------------------------------------------------|
   T       T/          T/        T/           T/

|--------------------------------------------------------------------------|
|-/17p10h13-15p10h13-17p10h13-15p10h13-------------------------------------|
|--------------------------------------17p9h12-16p9h12-17p9h12-16p9h12-17~-|
|--------------------------------------------------------------------------|
|--------------------------------------------------------------------------|
|--------------------------------------------------------------------------|
   T        T        T        T        T       T       T       T       T~


(yet another guitar enters here)
|------------------------------------------12/-|
|------------------------------13/15-p8h10-----|
|--------------------12/14-7h9-----------------|
|--------12/14p-9h10---------------------------|
|-12p5h7---------------------------------------|
|----------------------------------------------|
  T      T/          T/        T/          T/

|-/15p8h12-17p8h12-15p8h12-17p8h12-------------------------------------|
|----------------------------------15p8h12-17p8h12-15p8h12-17p8h12-13~-|
|----------------------------------------------------------------------|
|----------------------------------------------------------------------|
|----------------------------------------------------------------------|
|----------------------------------------------------------------------|
   T       T       T       T       T       T       T       T       T~


(Guitar 1)
|---------------------------------------------------|------------------------------------------------------------------------------|
|-------------------------------------------12-13~~-|----------------------------------------------15b-15b-r---20~~b-r-b-r-b-r-b-r-|
|-9---------------------------9/12-12---------------|-12----------------------------14----16---------------------------------------|
|---9-10-------10-------12--------------------------|----12-14-------14-------17---------------------------------------------------|
|-----------12----10-12----12---------14-15---------|----------14-15----14-15----14----14----14-15---------------------------------|
|--------12-----------------------------------------|------------------------------------------------------------------------------|


That's the jist of it, there are some other parts in the interlude riff played by 2nd
I'll do them if i get around to it...

This is the song structure in order as played...

INTRO
VERSE
PRE-CHORUS
CHORUS
VERSE
INTERLUDE
CHORUS
INTERLUDE
SOLO
INTRO(x1)
VERSE
CHORUS
INTERLUDE

Keep it \m/etal!!!
comments
print report bad tab
24 comments total. Showing first comments.
0 reply
SyntheticFears wrote on August 8 2006, 10:46 am

great job, sounds just like it.

0 reply
whatever89 wrote on August 24 2006, 10:14 pm

great job man!

0 reply
Carlson2000 wrote on August 27 2006, 08:06 am

just a few things.

Chorus
(Guitar 1)
|----------------------3--------------------|--------------------------------------------------------------------------|
|----------------------3--------------------|--------------------------------------------------------------------------|
|----------------------5------5------5------|--------------------------------------------------------------------------|
|-7------7------7------5------5------5------|-10-10-------9---12---9-------------------9---10----9---10----------------|
|-0--0-0-0--0-0-0--0-0-3--3-3-3--3-3-3--3-3-|--x--x-------x----x---x-----10-10-10-10------------------------7---7-5----|
|-------------------------------------------|--8--8-8-8-8-8-8--8-8-8-8-8--8--8--8--8--10-x-10-x-10-x-10-x-x---------8\-|

and in the solo at the end, the 15 on B should be a 19 on high e.

apart from that, great tab.

I want to post or [tab]
guest
You may want to rate the tab now too:
select rating
Please do not post tabs as comments. Select "correction" instead!