Oops, an error
Loading. Please wait.

Of The Deep Tab

version 1
version 1

Whole song

Interactive

415 views 1 this week
no commentswrite comment
1 2 3 4 5
3 more votes to show rating
add to favorites
launch autoscroll
font size
0
reset
how to read this tab
guitar tuner
Autoscroll
slow
fast
+/-
esc
set tempo
stop
Help us to improve Ultimate-Guitar.com Take our survey!
×
Author
Difficulty
Tuning
intermediate
C# G# C# F# A# D#
All that Remains!
Tabbed by: Mike Gillis (mike3oo)
Tuning: C# F# B E G# C#


(Intro 0:00-0:11)
C#:-------------------------------------------------------------------------:
G#:-------------------------------------------------------------------------:
E:--------------------------------------------------------------------------:
B:--5-5----7-7----9-9------------------5-5----7-7----9-9--------------------:
F#:-3-3----5-5----7-7------------------3-3----5-5----7-7--------------------:
C#:-----00-----00----------0-0-0-000-0-----00-----00------------------------:


C#:-------------------------------------------------------------------------:
G#:-------------------------------------------------------------------------:
E:--------------------------------------------------------------------------:
B:--------------5-5----7-7----9-9-------------5-5----7-7----9-9-------------:
F#:-------------3-3----5-5----7-7-------------3-3----5-5----7-7-------------:
C#:-0-0-0-000-0-----00-----00-----0-0-0-000-0-----00-----00-----0-0-0-000-0-:


(0:12-0:21)
C#:-------------------------------------------------------------------------:
G#:-------------------------------------------------------------------------:
E:--------------------------------------------------------------------------:
B:---9-9----5-5----7-7---------------5-5----7-7----8-8----------------------:
F#:--7-7----3-3----5-5---------------3-3----5-5----6-6----------------------:
C#:------00-----00---------0-0-000-0-----00-----00------0-0-000-0-----------:


C#:-------------------------------------------------------------------------:
G#:-------------------------------------------------------------------------:
E:--------------------------------------------------------------------------:
B:---9-9----5-5----7-7---------------5-5----7-7----9-9----------------------:
F#:--7-7----3-3----5-5---------------3-3----5-5----7-7-------------2--------:
C#:------00-----00---------0-0-000-0-----00-----00-----0-0-000-0-0-0--------:


(0:21-0:30)
C#:-------------------------------------------------------------------------:
G#:-------------------------------------------------------------------------:
E:--------------------------------------------------------------------------:
B:---------------------------5--------------------------------4-------------:
F#:----------------------3-5---7--------------------------3-5---2-----------:
C#:-0-0-000-0-0-000-0-0--------------0-0-000-0-0-000-0-0--------0-----------:


C#:-------------------------------------------------------------------------:
G#:-------------------------------------------------------------------------:
E:--------------------------------------------------------------------------:
B:---------------------------5----------------------------------------------:
F#:----------------------3-5---7----------------------12-9-----10-7--2------:
C#:-0-0-000-0-0-000-0-0-----------0-0-000-0-0-0-----0--------0-------0 -----:


(0:31-0:40)
C#:-------------------------------------------------------------------------:
G#:-------------------------------------------------------------------------:
E:--------------------------------------------------------------------------:
B:----------------------5-7--7-9---------------------5-7--7-----------------:
F#:---------------------3-5--5-7---------------------3-5--5-2---------------:
C#:-0-0-0-0-0-0-0-0-0-0----------0-0-0-0-0-0-0-0-0-0--------0---------------:


C#:-------------------------------------------------------------------------:
G#:-------------------------------------------------------------------------:
E:--------------------------------------------------------------------------:
B:----------------------5-7--7-9--------------------------------------------:
F#:---------------------3-5--5-7------------------12-9-----10-7-------------:
C#:-0-0-0-0-0-0-0-0-0-0----------0-0-0-0-0-0---0--------0-------------------:


(0:41-0:59)
C#:-------------------------------------------------------------------------:
G#:-----12-13-15-13-12-10---12-12-10-12-13-12---12-10-8---------------------:
E:--9---------------------------------------------------9-11---12-11-9-7-9--:
B:--------------------------------------------------------------------------:
F#:-------------------------------------------------------------------------:
C#:-------------------------------------------------------------------------:

                (on this riff you can do alot of bending to hit
                 the right notes instead of picking every note)

C#:-------------------------------------------------------------------------:
G#:-12-13-15-13-12-10---12-12-10-12-13-12---12-10-8-------------------------:
E:--------------------------------------------------9-11---12-11-9-7-9------:
B:--------------------------------------------------------------------------:
F#:-------------------------------------------------------------------------:
C#:-------------------------------------------------------------------------:


(1:00-1:18)
C#:-------------------------------------------------------------------------:
G#:-------------------------------------------------------------------------:
E:--------------------------------------------------------------------------:
B:---------------------------5--------------------------------4-------------:
F#:----------------------3-5---7--------------------------3-5---2-----------:
C#:-0-0-000-0-0-000-0-0--------------0-0-000-0-0-000-0-0--------0-----------:


C#:-------------------------------------------------------------------------:
G#:-------------------------------------------------------------------------:
E:--------------------------------------------------------------------------:
B:---------------------------5----------------------------------------------:
F#:----------------------3-5---7----------------------12-9-----10-7---------:
C#:-0-0-000-0-0-000-0-0-----------0-0-000-0-0-0-----0--------0--------------:


C#:-------------------------------------------------------------------------:
G#:-------------------------------------------------------------------------:
E:----9------12------14------16---------------------------------------------:
B:--------------------------------------------------------------------------:
F#:-------------------------------------------------------------------------:
C#:-------------------------------------------------------------------------:


(1:19-1:38)
C#:-------------------------------------------------------------------------:
G#:-----12-13-15-13-12-10---12-12-10-12-13-12---12-10-8---------------------:
E:--9---------------------------------------------------9-11---12-11-9-7-9--:
B:--------------------------------------------------------------------------:
F#:-------------------------------------------------------------------------:
C#:-------------------------------------------------------------------------:

           (once again on this riff you can do alot of bending to hit
                the right notes instead of picking every note)

C#:-------------------------------------------------------------------------:
G#:-12-13-15-13-12-10---12-12-10-12-13-12---12-10-8-------------------------:
E:--------------------------------------------------9-11---12-11-9-7-9------:
B:--------------------------------------------------------------------------:
F#:-------------------------------------------------------------------------:
C#:-------------------------------------------------------------------------:



I'm working on the solo. The solo is hard to pick out so I'll post it when I've got it.

ROCK ON!!!
Suggest correction
Give kudos to tab author, rate the tab!
1 2 3 4 5
comments
print report bad tab
guest
You may want to rate the tab now too:
select rating
Wanna post a correction for this tab? Suggest correction