Oops, an error
Loading. Please wait.

Shading Tab

737 views 1 this week
no commentswrite comment
1 2 3 4 5
please rate
add to favorites
launch autoscroll
font size
0
reset
how to read this tab
guitar tuner
Tab Pro tools
  • play this tab
  • loop segment
  • change instrument
  • show fretboard
  • metronome
Autoscroll
slow
fast
+/-
esc
set tempo
stop
Contributor
artist: All That Remains
song: Shading
album: Behind Silence And Solitude
year: 2002
tuning: B-Standard (BEADF#B)

This is an older All That Remains song from the album Behind Silence And Solitude. I 
pretty much the whole song except for the solo.

intro: played twice (guitar I)
B|----------------------------------------------------------------------|
F#|---------------------------------------------------------------------|
D|----------------------------------------------------------------------|
A|-------------9---------------7----------------------------------------|
E|---------7-------7h8-----5-------5h6-----5---3---8-----5---8---7*-----|
B|-----0-0---0---0-----0-0---0---0-----0-0---0---0---0-0---0---0--------|
       . .   .   .     . .   .   .     . .   .   .   . .   .   .

B|----------------------------------------------------------------------|
F#|---------------------------------------------------------------------|
D|----------------------------------------------------------------------|
A|-------------9---------------7----------------------------------------|
E|---------7-------7h8-----5-------5h6-----5---3---2--------------------|
B|-----0-0---0---0-----0-0---0---0-----0-0---0---0---777755553333-0-----|
       . .   .   .     . .   .   .     . .   .   .   ............

intro rhythm: played twice (guitar II)
B|----------------------------------------------------------------------|
F#|---------------------------------------------------------------------|
D|---------9~-----7~----------------------------------------------------|
A|---------9~-----7~----------------------------------------------------|
E|---------7~-----5~-----5---3---8-----5---8---7*-----------------------|
B|-----0-0----0-0----0-0---0---0---0-0---0---0--------------------------|
       . .    . .    . .   .   .   . .   .   .

B|----------------------------------------------------------------------|
F#|---------------------------------------------------------------------|
D|---------9~-----7~----------------------------------------------------|
A|---------9~-----7~----------------------------------------------------|
E|---------7~-----5~-----5---3---2--------------------------------------|
B|-----0-0----0-0----0-0---0---0---777755553333-0-----------------------|
       . .    . .    . .   .   .   ............


verse: played four times (both guitar I & II)
B|----------------------------------------------------------------------------|
F#|---------------------------------------------------------------------------|
D|----------------------------------------------------------------------------|
A|-------5-9---7-9---5------10---7-10------4-7---5-7--------------------------|
E|-----7-----7-----7---7-10----7------10-5-----5-------------10101010---------|
B|---------------------------------------------------77778888--------8888-----|
       .     .     .   .  .    .       . .     .     ........ . . . .....

chorus: played twice (both guitar I & II)
B|------------------------------------------------------------|
F#|-----------------------------------------------------------|
D|------------------------------------------------------------|
A|--------------------------4---7---5-----5h4-----------------|
E|-----2--------------4/5---2---5---3-----------7-------------|
B|-----0-0-0-0-0-0--0-2/3-0---0---0---0-0-----0---0-5-3-2-----|
         . . . . .  .     .   .   .   . .     .   . . . .
B|---------------------------------------------------------------|
F#|--------------------------------------------------------------|
D|---------------------------------------------------------------|
A|--------------------------4---7---5-----5h4--------------------|
E|-----2--------------4/5---2---5---3-----------7----------------|
B|-----0-0-0-0-0-0--0-2/3-0---0---0---0-0-----0---0-5-3-2-3*-----|
         . . . . .  .     .   .   .   . .     .   . . . .


verse: played four times (both guitar I & II)
B|----------------------------------------------------------------------------|
F#|---------------------------------------------------------------------------|
D|----------------------------------------------------------------------------|
A|-------5-9---7-9---5------10---7-10------4-7---5-7--------------------------|
E|-----7-----7-----7---7-10----7------10-5-----5-------------10101010---------|
B|---------------------------------------------------77778888--------8888-----|
       .     .     .   .  .    .       . .     .     ........ . . . .....


chorus: played twice (both guitar I & II)
B|------------------------------------------------------------|
F#|-----------------------------------------------------------|
D|------------------------------------------------------------|
A|--------------------------4---7---5-----5h4-----------------|
E|-----2--------------4/5---2---5---3-----------7-------------|
B|-----0-0-0-0-0-0--0-2/3-0---0---0---0-0-----0---0-5-3-2-----|
         . . . . .  .     .   .   .   . .     .   . . . .
B|---------------------------------------------------------------|
F#|--------------------------------------------------------------|
D|---------------------------------------------------------------|
A|--------------------------4---7---5-----5h4--------------------|
E|-----2--------------4/5---2---5---3-----------7----------------|
B|-----0-0-0-0-0-0--0-2/3-0---0---0---0-0-----0---0-5-3-2-3*-----|
         . . . . .  .     .   .   .   . .     .   . . . .

solo: (guitar I)

sorry I don't have the solo yet, but I did some parts of it, but they're aren't the 
phrasing I need time to figure it out.

solo rhythm: (guitar II)
B|------------------------------------------------------------|
F#|-----------------------------------------------------------|
D|------------------------------------------------------------|
A|--------------------------4---7---5-----5h4-----------------|
E|-----2--------------4/5---2---5---3-----------7-------------|
B|-----0-0-0-0-0-0--0-2/3-0---0---0---0-0-----0---0-5-3-2-----|
         . . . . .  .     .   .   .   . .     .   . . . .
B|---------------------------------------------------------------|
F#|--------------------------------------------------------------|
D|---------------------------------------------------------------|
A|--------------------------4---7---5-----5h4--------------------|
E|-----2--------------4/5---2---5---3-----------7----------------|
B|-----0-0-0-0-0-0--0-2/3-0---0---0---0-0-----0---0-5-3-2-3*-----|
         . . . . .  .     .   .   .   . .     .   . . . .

*note* the rhythm under solo is pretty much the same thing as playing the chorus riff.

verse: played four times (both guitar I & II)
B|----------------------------------------------------------------------------|
F#|---------------------------------------------------------------------------|
D|----------------------------------------------------------------------------|
A|-------5-9---7-9---5------10---7-10------4-7---5-7--------------------------|
E|-----7-----7-----7---7-10----7------10-5-----5-------------10101010---------|
B|---------------------------------------------------77778888--------8888-----|
       .     .     .   .  .    .       . .     .     ........ . . . .....


break: played three times (both guitar I & II)
B|---------------------------5---------------------------------------5-8-5--------------11-8----8---------|
F#|------------------------------------------------4-----------------------------------------10---10------|
D|-------------------------5------------------------------------------------------------------------------|
A|-----7-----8-------7-6-7-----7-----8-----7---7-6---7-----7-----4-7-------7-----7------------------------|
E|-------6-5---6-5-5-------------6-5---6-5---5---------6-5---6-5-------------6-5---6-5--------------------|
B|--------------------------------------------------------------------------------------------------------|


bridge: (guitar I: played twice  guitar II: played six times)
B|------------------------------------------------------------------------------|
F#|-----------------------------------------------------------------------------|
D|------------------------------------------------------------------------------|
A|---------14-----12-----10-----9-----7-----5-----7-----5-----4-----2-----0-----|
E|------------------------------------------------------------------------------|
B|-----0-0----0-0----0-0----0-0---0-0---0-0---0-0---0-0---0-0---0-0---0-0-------|
       . .    . .    . .    . .   . .   . .   . .   . .   . .   . .   . .

bridge lick: played four times (guitar I)
B|-----/19-15----17-14----15-12----14-10----12-15-14-15--12-15-14-15--12-15-14-15--12-15-14-15-----|
F#|-----------17-------15-------13-------12--------------------------------------------------------|
D|-------------------------------------------------------------------------------------------------|
A|-------------------------------------------------------------------------------------------------|
E|-------------------------------------------------------------------------------------------------|
B|-------------------------------------------------------------------------------------------------|

harmonized bridge lick: played twice (guitar III)
B|-----/22-19----20-17----19-15----17-14----15-19-17-19--15-19-17-19--15-19-17-19--15-19-17-19-----|
F#|-----------20-------19-------17-------15--------------------------------------------------------|
D|-------------------------------------------------------------------------------------------------|
A|-------------------------------------------------------------------------------------------------|
E|-------------------------------------------------------------------------------------------------|
B|-------------------------------------------------------------------------------------------------|


chorus: played twice (both guitar I & II)
B|------------------------------------------------------------|
F#|-----------------------------------------------------------|
D|------------------------------------------------------------|
A|--------------------------4---7---5-----5h4-----------------|
E|-----2--------------4/5---2---5---3-----------7-------------|
B|-----0-0-0-0-0-0--0-2/3-0---0---0---0-0-----0---0-5-3-2-----|
         . . . . .  .     .   .   .   . .     .   . . . .
B|---------------------------------------------------------------|
F#|--------------------------------------------------------------|
D|---------------------------------------------------------------|
A|--------------------------4---7---5-----5h4--------------------|
E|-----2--------------4/5---2---5---3-----------7----------------|
B|-----0-0-0-0-0-0--0-2/3-0---0---0---0-0-----0---0-5-3-2-3*-----|
         . . . . .  .     .   .   .   . .     .   . . . .

chorus: played twice (both guitar I & II)
B|-------------------------------------------------------------|
F#|------------------------------------------------------------|
D|-------------------------------------------------------------|
A|---------------------------4---7---5-----5h4-----------------|
E|-----2---------------4/5---2---5---3-----------7-------------|
B|-----0-000-000-000-0-2/3-0---0---0---0-0-----0---0-5-3-2-----|
         ... ... ... .
B|----------------------------------------------------------------|
F#|---------------------------------------------------------------|
D|----------------------------------------------------------------|
A|---------------------------4---7---5-----5h4-------------\9-----|
E|-----2---------------4/5---2---5---3-----------7---------\7-----|
B|-----0-000-000-000-0-2/3-0---0---0---0-0-----0---0-5-3-2--------|
         ... ... ... .
comments
We did not receive enough feedback on this tab! Please rate:
print report bad tab
1 2 3 4 5
I want to post or [tab]
guest
You may want to rate the tab now too:
select rating
Please do not post tabs as comments. Select "correction" instead!