Oops, an error
Loading. Please wait.

Six Tab

version 3
395,289 views 201 this week
132 commentsread comments
1 2 3 4 5
x 177
add to favorites
launch autoscroll
font size
0
reset
how to read this tab
guitar tuner
Autoscroll
slow
fast
+/-
esc
set tempo
stop
Help us to improve Ultimate-Guitar.com Take our survey!
×
Author
Difficulty
intermediate
Order of Song:  READ DIRECTIONS WITH EACH PART OR YOU WON'T UNDERSTAND THE TAB!  LISTEN
THE SONG VERY CLOSE!

[Intro]           0:00 - 0:09     [Riff 1]                    1:17 - 1:37
[Intro Riff 2]    0:09 - 0:28     [Clean Tone Interlude]      1:37 - 2:08
[Verse Riff]      0:28 - 0:47     [Pre-Solo]                  2:08 - 2:28
[Riff 1]          0:47 - 0:58     [Solo]                      2:28 - 2:38
[Verse Riff]      0:58 - 1:07     [Riff 1]                    2:38 - 2:58
[Riff 2]          1:07 - 1:17     [Outro]                     2:58 - End


[Intro]
0:00 - 0:09
2 Times (Guitars 1 & 2)

Guitar 1
d|----------------------------------------|--------------------------------|
A|----------------------------------------|--------------------------------|
F|----------------------------------------|--------------------------------|
C|-10---------12---12------------------14-|-----16----16----17----17----17-|
G|-10-------10--10-12------------12-10----|---14----14----14----14----14---|
D|--8-88888--------10-1010101010----------|-12----12----12----12----12-----|
      .....  .        . . . . .  .  .       . .   . .   . .   . .   . .

Guitar 2
 |   <-Second time only for this part->   |
d|----------------------------------------|--------------------------------|
A|----------------------------------------|--------------------------------|
F|------------11-----------------------12-|-----14----14----16----16----16-|
C|-10-----------12-12---------------------|---12----12----12----12----12---|
G|-10-------10-----12------------12-10----|-10----10----10----10----10-----|
D|--8-88888--------10-1010101010----------|--------------------------------|
      .....  .        . . . . .  .  .       . .   . .   . .   . .   . .

[Intro Riff 2]           [Outro]
0:09 - 0:28              2:58 - End (Order Same for Intro and Outro)

Order for Guitar 1:  1, 2, 1, 3, 1, 2, 1, 4
Guitar 1
                                   1
d|-----------------------------------------------------------------------|
A|-----------------------------------------------------------------------|
F|-----------------------------------------------------------------------|
C|----------121212------------------141414------------161616171717191919-|
G|----101010------101010121212101010------121212141414-------------------|
D|-888-------------------------------------------------------------------|
   ... . . . . . . . . . . . . . . . . . . . . . . . . . . . . . . . . .

                   2           3                    4
d|--------------|-----|----------------|---------------------------|
A|--------------|-----|----------------|---------------------------|
F|--------------|-----|----------------|---------------------------|
C|-171717161616-|-17\-|-14141412121212-|-17-16-14----14----------2-|
G|--------------|-----|----------------|----------17----17-15-14-2-|
D|--------------|-----|----------------|-------------------------0-|
    . . . . . .          . . . . . . .


[Guitar 2]

0:19 - 0:28
  -Guitar 2 plays with Guitar 1 part Parts 1, 2, 1, 3. Then comes in  with Guitar 2
at 0:19.
  -Order for Guitar 2:  1, 2, 1, 3
                                    1
d|-----------------------------------------------------------------------|
A|-----------------------------------------------------------------------|
F|----------------------------------------------------141414161616171717-|
C|----------121212------------------141414------141414-------------------|
G|----101010------101010121212101010------121212-------------------------|
D|-888-------------------------------------------------------------------|
   ... . . . . . . . . . . . . . . . . . . . . . . . . . . . . . . . . .

                   2             3
d|--------------|-----|---------------------------|
A|--------------|-----|---------------------------|
F|-161616141414-|-16\-|-16-14-12----12------------|
C|--------------|-----|----------16----16-14-12-2-|
G|--------------|-----|-------------------------2-|
D|--------------|-----|-------------------------0-|
    . . . . . .


[Verse Riff]

Guitars 1 and/or 2

0:28 - 0:47   0:58 - 1:07   1:07 - 1:17(With Guitar 1 on Riff 2)

Twice
d|----------------------------------|-----------------------------------|
A|----------------------------------|-----------------------------------|
F|----------------------------------|-----------------------------------|
C|----------------------------------|-----------------------------------|
G|---------------------------12--14-|---------------------------12---14-|
D|-0-0-000-0-0-000-0-0-000-0---0----|-0-0-000-0-0-000-0-0-000-0----0----|
   . . ... . . ... . . ... .   .      . . ... . . ... . . ... .    .

d|----------------------------------|----------------------------------|
A|----------------------------------|----------------------------------|
F|----------------------------------|----------------------------------|
C|----------------------------------|----------------------------------|
G|---------------------------9---10-|---------------------------9---10-|
D|-8-8-888-8-8-888-8-8-888-8---8----|-8-8-888-8-8-888-8-8-888-8---8----|
   . . ... . . ... . . ... .   .      . . ... . . ... . . ... .   .


[Riff 1]

0:47 - 0:58        1:17 - 1:37                2:38 - 2:58
4 times            3 times then Fill 1.       3 Times then Fill 1.
                   3 times then Fill 2.       3 Times then Fill 3.

   - It's either A or B.  Whatever sounds good to you.

Guitar 1 & 2
               A                                     B
d|---------------------------------|   |------------------------------|
A|---------------------------------|   |------------------------------|
F|---------------------------------|   |------------------------------|
C|---------------------------------|   |------------------------------|
G|-2p0-2-----2p0-2-----------------|   |-2p02-----2p0-----------------|
D|-------0-0-------0-0-0-0-000-0-0-|   |-0--0-0-0-0-0-0-0-0-0-000-0-0-|


[Fill 1]  1:25 - 1:27
d|---------------------------------|
A|---------------------------------|
F|---------------------------------|
C|---------------------------------|
G|-2p0-2-----------2-1-------0-----|
D|-0---0-0-0-0-2-3-----3-0-2---3-0-|


 [Fill 2] 1:35 - 1:37   [Fill 3] 2:56 - 2:58 Guitar 1
d|--------------|       |----------------------------------------|
A|--------------|       |----------------------------------------|
F|--------------|       |----------------------------------------|
C|--------------|       |----------------------------------------|
G|-2-0-2--2-0-2-|       |-----14---15---12---14---10---12-10-9---|
D|-0-0-0--0-0-0-|       |-0-0----0----0----0----0----0--------12-|

                        [Fill 3] 2:56 - 2:58 Guitar 2
                        |------------------------------------|
                        |------------------------------------|
                        |------------------------------------|
                        |------------------------------------|
                        |-----10---12---9---10---7---9-7-5---|
                        |-0-0----0----0---0----0---0-------8-|

[Riff 2]

1:07 - 1:17
  -Guitar 2 plays Verse Riff with Guitar 1.
Guitar 1
d|-------------------------------|-----------------------------|
A|-------------------------------|-----------------------------|
F|-------------------------------|-----------------------------|
C|-------------------------------|-----------------------------|
G|----14-15-12-14-10-12-12-12-14-|----14-15-12-14-10-12-10-9-7-|
D|-0-0--0--0--0--0--0------------|-0-0--0--0--0--0-------------|

d|------------------------|--------------------------|
A|------------------------|--------------------------|
F|------------------------|--------------------------|
C|----9-10-7-9----7-7-7-9-|-----9-10-7-9----7--------|
G|-------------10---------|--------------10---10-9-7-|
D|-8-8-8--8-8-8-----------|--8-8-8--8-8-8------------|


[Clean Tone Interlude]

Guitar 1
1:37 - 2:08
6 times
d|--------0------------0--------------0-------------0-------|
A|----------------------------------------------------------|
F|----------------------------------------------------------|
C|----10---10------12---12--12----14---14-------14---14-----|
G|--10--10---10--12--12---12----14--14---14---14--14---14---|
D|-8-----------10-------------12-----------12------------12-|

Guitar 2
1:48 - 2:08
Twice (Starts on Third time of Guitar 1)
d|--------------------------------------------------------|
A|--------------------------------------------------------|
F|-16-16-16-16-14-12-11-11h12----14--14---12--12--11--9-7-|
C|----------------------------12---12--\10--10--\9--\7----|
G|--------------------------------------------------------|
D|--------------------------------------------------------|

d|-------------------------------------------------------------|
A|-------------------15-------------15-------------------------|
F|-16-16-16-16-14-16----16-11h12-11----12-11-11h12p11----------|
C|----------------------------------------------------14-12-12-|
G|-------------------------------------------------------------|
D|-------------------------------------------------------------|


[Pre-Solo Riff]

Guitar 1         Play behind Solo
4 Times          2 Times
2:08 - 2:28      2:28 - 2:37 (Cuts out to play harmony part at end of solo)
d|-----------------------------------|
A|-----------------------------------|
F|-5--7--9\7/9-----9\7/9---------9\7-|
C|-x--x--x-x-x-----x-x-x---------x-x-|
G|-3--5--7\5/7-----7\5/7---------7\5-|
D|-------------0-0-------0-0-0-0-----|

Guitar 2
Twice
2:08 - 2:28
d|--------------------------------------------------------------|
A|--------------------------------------------------------------|
F|-16-16-16-16-14-12-11-11/12\11-12-----12\11/12----------12\11-|
C|--x--x--x--x--x--x--x--x--x--x--x------x--x--x-----------x--x-|
G|-14-14-14-14-12-10--9--9/10\-9-10-----10\-9/10----------10\-9-|
D|----------------------------------0-0-----------0-0-0-0-------|

d|---------------------------------------------------|
A|------------------------------------10-------------|
F|-9--9--11--11--12\----9---11---12--------12---11-9-|
C|-x--x---x---x---x---9---9----9----9----9----9------|
G|-7--7---9---9--10\---------------------------------|
D|---------------------------------------------------|


[Solo]

2:28 - 2:38
d|-------------------------------------19p15-------------------------|
A|--------------------------15---------------17----17----------------|
F|-14^-14^+14p12-14^---11-12---12p11-12---------16----16-------------|
C|-------------------9-----------------------------------17----------|
G|----------------------------------------------------------19-15-14-|
D|-------------------------------------------------------------------|

d|-------------------------------------------------------------------|
A|-------------------------------------------------------------------|
F|-------------------------------------------------------------------|
C|---------------------------------------------------9-10-12---------|
G|-15-17-15-14------------------------7-9-10-9-10-12---------9-10-12-|
D|-------------17-15-14-12-8--8-10-12--------------------------------|
                                        Guitars 1 & 2 (top or bottom)
d|------------------------------------|-------------------------------|
A|-----------------10-12-10-----------|-------------------------------|
F|---------9-11-12----------12-11-10~-|-14-16-12-14h16-16^+-16-14-14+-|
C|-9-10-12----------------------------|-16-17-14-16h17-17^+-17-16-16+-|
G|------------------------------------|-------------------------------|
D|------------------------------------|-------------------------------|

*********************************

| /  Slide up
| \  Slide down
| h  Hammer-on
| p  Pull-off
| ~  Vibrato
| +  Harmonic
| x  Mute note
| ^  Bend note

*********************************
Suggest correction
comments
print report bad tab
132 comments total. Showing first comments. show 2 bad comments
+12 reply
shtuff 10 Feb 02, 2007 06:42 PM

I DONT EVEN FUCKING CARE IF THIS IS CORRECT YOU ARE GOD YOU BASTARD! THANK YOU SO MUCH!

guest
You may want to rate the tab now too:
select rating
Wanna post a correction for this tab? Suggest correction