Oops, an error
Loading. Please wait.

Six Tab

version 4
43,332 views 18 this week
5 commentsread comments
1 2 3 4 5
worth learning
x 9
add to favorites
launch autoscroll
font size
0
reset
how to read this tab
guitar tuner
Tab Pro tools
  • play this tab
  • loop segment
  • change instrument
  • show fretboard
  • metronome
Autoscroll
slow
fast
+/-
esc
set tempo
stop
Contributor
Tuning
D A D G B E
SIX by all that remains


[a few minor changes have been made in the intro]
:D

intro [x2] :00-:09
e|----------------------------------------------------------------------------|
b|----------------------------------------------------------------------------|
g|--------------------------------------------12----12-----14-----14-----14---|
d|-8---------10----10--------------10-12-0-10----0-10---0-12---0-12---0-12----|
a|-8-------8----8--10-----------10--------------------------------------------|
d|-8-8-888---------10-10-101010-----------------------------------------------|
     . ...            .  . . .
:09-:29
e|--------------------------------------------------------------------------|
b|--------------------------------------------------------------------------|
g|--------------------------------------------------------------------------|
d|-------101010-----------------121212--------------151515-141414-151515----|
a|----888------888-------101010--------101010-------------------------------|
d|-888-------------101010---------------------121212------------------------|

e|--------------------------------------------------------------------------|
b|--------------------------------------------------------------------------|
g|--------------------------------------------------------------------------|
d|-171717-151515-141414-15~\-------101010---------------121212--------------|
a|------------------------------888------888------101010------101010--------|
d|---------------------------888------------101010------------------121212--|

e|--------------------------------------------------------------------------|
b|--------------------------------------------------------------------------|
g|--------------------------------------------------------------------------|
d|-151515--141414--151515--171717--151515--141414--121212--------101010-----|
a|------------------------------------------------------------888------888--|
d|---------------------------------------------------------888--------------|

e|--------------------------------------------------------------------------|
b|--------------------------------------------------------------------------|
g|--------------------------------------------------------------------------|
d|-------------121212-------------151515-141414-151515-171717-151515-141414-|
a|-------101010------101010-------------------------------------------------|
d|-101010-------------------121212------------------------------------------|

e|--------------------------------------------------------------------------|
b|--------------------------------------------------------------------------|
g|--------------------------------------------------------------------------|
d|-15~\--------101010---------------121212-----------151515-141414-151515---|
a|----------888------888------101010------101010----------------------------|
d|-------888------------101010------------------121212----------------------|

e|--------------------------------------------------------------------------|
b|--------------------------------------------------------------------------|
g|--------------------------------------------------------------------------|
d|-15-14-12--12-------------------------------------------------------------|
a|---------15--15-13-12-----------------------------------------------------|
d|--------------------------------------------------------------------------|

verse [x2] :29-:48
e|--------------------------------------------------------------------------|
b|--------------------------------------------------------------------------|
g|--------------------------------------------------------------------------|
d|-0------------------------------------------------------------------------|
a|-0-------------------------10--12-------------------------10--12----------|
d|-0-0-000-0-0-000-0-0-000-0---0---0-0-000-0-0-000-0-0-000-0---0------------|
     . ... . . ... . . ... .   .   . . ... . . ... . . ... .   .

e|--------------------------------------------------------------------------|
b|--------------------------------------------------------------------------|
g|--------------------------------------------------------------------------|
d|--------------------------------------------------------------------------|
a|---------------------------7--8---------------------------7---8-----------|
d|-8-8-888-8-8-888-8-8-888-8--8---8-8-888-8-8-888-8-8-888-8---8-------------|
   . . ... . . ... . . ... .  .   . . ... . . ... . . ... .   .

chorus [x4] :48-:57

e|--------------------------------------------------------------------------|
b|--------------------------------------------------------------------------|
g|--------------------------------------------------------------------------|
d|--------------------------------------------------------------------------|
a|--------------------------------------------------------------------------|
d|-7-5-7-0-0-7-5-7-0-0-0-0-000-0-0------------------------------------------|
         . .       . . . . ... . .

verse :57-1:08
e|--------------------------------------------------------------------------|
b|--------------------------------------------------------------------------|
g|--------------------------------------------------------------------------|
d|-0------------------------------------------------------------------------|
a|-0-------------------------10--12-------------------------10--12----------|
d|-0-0-000-0-0-000-0-0-000-0---0---0-0-000-0-0-000-0-0-000-0---0------------|
     . ... . . ... . . ... .   .   . . ... . . ... . . ... .   .

e|---------------------------------------------------------------------------|
b|---------------------------------------------------------------------------|
g|---------------------------------------------------------------------------|
d|---------------------------------------------------------------------------|
a|---------------------------7--8--------------------------------------------|
d|-8-8-888-8-8-888-8-8-888-8--8---8-8-888-8-8-888-8-8-888-8---[pickslide]----|
   . . ... . . ... . . ... .  .   . . ... . . ... . . ... .

cool bridge thingy [x2] 1:08-1:17

e|--------------------------------------------------------------------------|
b|--------------------------------------------------------------------------|
g|--------------------------------------------------------------------------|
d|-00-7p0-h8p0-h5p0-h7p0-h3p0-555-7---00-7p0-h8p0-h5p0-h7p0-h3p0-5-3-2-0----|
a|-..---------------------------------..------------------------------------|
d|--------------------------------------------------------------------------|

e|--------------------------------------------------------------------------|
b|--------------------------------------------------------------------------|
g|--------------------------------------------------------------------------|
d|----7p0-h8p0-h5p0-h7p0-h3p0-555-7------7p0-h8p0-h5p0-h7p0-h3p0-5-3-2-0----|
a|--------------------------------------------------------------------------|
d|-88-------------------------------88--------------------------------------|
   ..                               ..

chorus 1:17-1:36
e|--------------------------------------------------------------------------|
b|--------------------------------------------------------------------------|
g|--------------------------------------------------------------------------|
d|--------------------------------------------------------------------------|
a|-----------------------------------------------------1-0------------------|
d|-7-5-7-0-0-7-5-7-0-0-0-0-000-0-0--[x3]-7-5-7---0-2-3-----5-3-5-3-2-0------|
         . .       . . . . ... . .

e|---------------------------------------------------------------------------|
b|---------------------------------------------------------------------------|
g|---------------------------------------------------------------------------|
d|---------------------------------------------------------------------------|
a|---------------------------------------------------------------------------|
d|-7-5-7-0-0-7-5-7-0-0-0-0-000-0-0-[x3]-7-5-7---7-5-7------------------------|
         . .       . . . . ... . .

and if someone knows how to do the solo, help me out

:D
comments
print report bad tab
5 comments total. Showing first comments.
0 reply
fuzzyfeet wrote on February 8 2007, 08:08 pm

pretty nice tab!!

the riff at the into is a tiny bit off, but other than that its perfect (not counting the fact that you left out the solo :-P)

4 stars

0 reply
romansumner wrote on August 10 2007, 05:47 pm

i agree

0 reply
romansumner wrote on August 10 2007, 05:47 pm

its okay i already know the solo

I want to post or [tab]
guest
You may want to rate the tab now too:
select rating
Please do not post tabs as comments. Select "correction" instead!