Oops, an error
Loading. Please wait.

Tattered On My Sleeve Tab

version 1
version 1

Whole song

Interactive

9,078 views 6 this week
8 commentsread comments
1 2 3 4 5
worth learning
x 11
add to favorites
launch autoscroll
font size
0
reset
how to read this tab
guitar tuner
Tab Pro tools
  • play this tab
  • loop segment
  • change instrument
  • show fretboard
  • metronome
×
Best way to learn
"Tattered On My Sleeve"
Autoscroll
slow
fast
+/-
esc
set tempo
stop
Contributor
All That Remains - Tattered On My Sleeve
By : I3irthDefect (A.K.A. \m/ Ed \m/)

Tuning : DADGBE

| / slide up
| \ slide down
| h hammer-on
| p pull-off
| ~ vibrato
| + harmonic
| x Mute note  


 Intro (x1)
e|------------------------------|
B|------------------------------|
G|---------------8-8----8-8-----|
D|---------------6-6----6-6-----| 
A|-6-6----6-6----6-6----6-6-----| 
D|-6-6-xx-6-6-xx-6-6-xx-6-6-xxx-| 

 Riff A - Not Exact Strumming - (x4)
e|-----------------------------------------------------------------------|
B|-----------------------------------------------------------------------|
G|-----------------------------------------------------------------------|
D|00000-111111------00000-33333-11111-00000-11111------------------------| 
A|------------333333-----------------------------333333-11111-33333-11100|
D|-----------------------------------------------------------------------|
 Riff B - (x1)
e|----------------------------------||-------------------------------|
B|----------------------------------||-------------------------------|
G|----------------------------------||-------------------------------|
D|----------------------------------||-------------------------------|
A|667---------0~0000007---------066-||7---------0~0000007---------0\\|
D|667-7h8p7p6-0~0000007-7h8p7p6-066-||7-7h8p7p6-0~0000007-7h8p7p6-0\\|
PM---           -------         ---   -           -------      
(Pickslide then go to Riff C) 

 Riff C - (x2)                                               
e|-------------------------------||----------------------------------|
B|-------------------------------||----------------------------------|
G|-------------------------------||----------------------------------|
D|-------------------------------||----------------------------------| 
A|7---------0~0000007---------066||-7---------0~0000007---------06666|
D|7-7h8p7p6-0~0000007-7h8p7p6-066||-7-7h8p7p6-0~0000007-7h8p7p6-06666|
PM-           -------         ---   -           -------         -----
 Riff D - (x1)
e|--------------------------------------------------------------------|
B|--------------------------------------------------------------------|
G|--------------------------------------------------------------------|
D|--------------------------------------------------------------------|
A|-0000-0-0-0-0000-0000-0-0-0-0000-0000-0-0-0-0000-0000-0-0-0-00-0-\--|
D|-0000-0-0-0-0000-0000-0-0-0-0000-0000-0-0-0-0000-0000-0-0-0-00-0-8\-| (Pickslide)
PM ---- - - - ---- ---- - - - ---- ---- - - - ---- ---- - - - -- -
 Riff C - (x2)  
e|-------------------------------||----------------------------------|
B|-------------------------------||----------------------------------|
G|-------------------------------||----------------------------------|
D|-------------------------------||----------------------------------| 
A|7---------0~0000007---------066||-7---------0~0000007---------06666|
D|7-7h8p7p6-0~0000007-7h8p7p6-066||-7-7h8p7p6-0~0000007-7h8p7p6-06666|
PM-           -------         ---   -           -------         -----
 Riff A - (x4)
e|-----------------------------------------------------------------------|
B|-----------------------------------------------------------------------|
G|-----------------------------------------------------------------------|
D|00000-111111------00000-33333-11111-00000-11111------------------------| 
A|------------333333-----------------------------333333-11111-33333-11100|
D|-----------------------------------------------------------------------|
 Riff D - (x1)
e|------------------------------------------------------------|
B|------------------------------------------------------------|
G|------------------------------------------------------------|
D|------------------------------------------------------------|
A|-0000-0-0-0-0000-0000-0-0-0-0000-0000-0-0-0-0000-0000-0-0-0-|
D|-0000-0-0-0-0000-0000-0-0-0-0000-0000-0-0-0-0000-0000-0-0-0-| 
PM ---- - - - ---- ---- - - - ---- ---- - - - ---- ---- - - - 
Strum This Chord Progession (Clean):
(Not Exact Strumming)
e|-0-1-3-3-0-1-|
B|-3-3-3-1-1-1-|
G|-2-2-2---0-0-|
D|---------2-2-|
A|-------------|
D|-------------|
 Riff E - (x6)
e|-------------------------------------------------------------------------|
B|-------------------------------------------------------------------------|
G|-------7-7-------7-7-------9-9-------1010------7-7-7-7-7-7-5-5-5-5-5-5-5-|
D|-------------------------------------------------------------------------|
A|-0-0-0-5-5-0-0-0-5-5-0-0-0-7-7-0-0-0-8-8-0-0-0-5-5-5-5-5-5-3-3-3-3-3-3-3-|
D|-0-0-0-----0-0-0-----0-0-0-----0-0-0-----0-0-0---------------------------|
PM - - -     - - -     - - -     - - -     - - -
 Riff F - (x2)
e|---------------------------------|
B|---------------------------------|
G|---------------------------------|
D|---------------------------------| 
A|-0000-2-2-2-3333-2222-3-3-3-2222-|
D|-0000-2-2-2-3333-2222-3-3-3-2222-|
PM ---- - - - ---- ---- - - - ----
 Riff G - (x1)
e|-------------------------------||------------------------------------|
B|-------------------------------||------------------------------------|
G|-------------------------------||----------------------------------88|
D|-------------------------------||----------------------------------66| 
A|7---------0~0000007---------066||-7---------0~0000007---------0666666|
D|7-7h8p7p6-0~0000007-7h8p7p6-066||-7-7h8p7p6-0~0000007-7h8p7p6-0666666|
PM-           -------         ---   -           -------         -----
 Riff F - (x2)
e|---------------------------------|
B|---------------------------------|
G|---------------------------------|
D|---------------------------------| (x2)
A|-0000-2-2-2-3333-2222-3-3-3-2222-|
D|-0000-2-2-2-3333-2222-3-3-3-2222-|
PM ---- - - - ---- ---- - - - ----
 Riff G - (x1)
e|-------------------------------||------------------------------------|
B|-------------------------------||------------------------------------|
G|-------------------------------||----------------------------------88|
D|-------------------------------||----------------------------------66| 
A|7---------0~0000007---------066||-7---------0~0000007---------0666666|
D|7-7h8p7p6-0~0000007-7h8p7p6-066||-7-7h8p7p6-0~0000007-7h8p7p6-0666666|
PM-           -------         ---   -           -------         -----
 Riff F - (x2)
e|---------------------------------|
B|---------------------------------|
G|---------------------------------|
D|---------------------------------| (x2)
A|-0000-2-2-2-3333-2222-3-3-3-2222-|
D|-0000-2-2-2-3333-2222-3-3-3-2222-|
PM ---- - - - ---- ---- - - - ----
(Repeat Until End Of Song...)
e|----------------------------------------------------|
B|----------------------------------------------------|
G|----------------------------------------------------|
D|----------------------------------------------------| 
A|-0000-0~~-2-2-2-3333-3~~-2222-2~~-3-3-3-3~-2222-2~~-|
D|-0000-0~~-2-2-2-3333-3~~-2222-2~~-3-3-3-3~-2222-2~~-|
PM ----     - - - ----     ----     - - -    ----

Sorry, I didn't tab the solo or the second guitar, but it
will be here soon!
Questions? Comments? Advice? I3irthDefect@aol.com! 
Please rate my tab too! =)
comments
print report bad tab
8 comments total. Showing first comments.
0 reply
sketelz wrote on November 8 2005, 06:49 pm

when it goes to the acoustic part... the chord where its just [xxxx13] can be played [x32013]. hope to see the solo soon if I don't figure it out, all and all a pretty good tab

-1 reply
prisonofreason wrote on May 29 2006, 03:32 pm

All Remains plays in D standard for starters. This tab is WAY off. Sorry

0 reply
Angel of Misery wrote on July 24 2006, 05:45 am

secxond guitar is missing and the solo... and after the 000 8x10 8x10 thing there are no 000 between that.

I want to post or [tab]
guest
You may want to rate the tab now too:
select rating
Please do not post tabs as comments. Select "correction" instead!