Oops, an error
Loading. Please wait.

Tattered On My Sleeve Tab

version 2
version 2

Whole song

Interactive

8,995 views 6 this week
5 commentsread comments
1 2 3 4 5
x 9
add to favorites
launch autoscroll
font size
0
reset
how to read this tab
guitar tuner
Autoscroll
slow
fast
+/-
esc
set tempo
stop
Help us to improve Ultimate-Guitar.com Take our survey!
×
Author
Tabbed by cheez1492

questions/comments: ewlord-1492@hotmail.com

Tuning: D standard (DGCFAd)

I left out some of the harmonies in the solo, but the rest of the song is there.


Intro:

  H.=64
 6/4
  Gtr I
  E E E E E E E E E E E E    E  E  E E E E  E  E  E E E E
|-------------------------|-------------------------------|
|-------------------------|-------------------------------|
|-------------------------|-10-10-10-------10-10-10-------|
|-------------------------|--8--8--8--------8--8--8-------|
|-6---6-x-x-x-6---6-x-x-x-|--6--6--6-x-x-x--6--6--6-x-x-x-|
|-6---6-x-x-x-6---6-x-x-x-|--6--6--6-x-x-x--6--6--6-x-x-x-|


Chorus Riff: (play 4x)

  TP   TP TPTP   TP TP  TP   TP TPTP   TP
  Q.   Q  E Q.   Q  E   Q.   Q  E Q.   Q.
|---------------------|---------------------|
|---------------------|---------------------|
|---------------------|---------------------|
|-2----3--0-2----5--3-|-2----3--0-----------|
|---------------------|-----------3----5----|
|---------------------|---------------------|

Chorus Harmony: (play 3rd and 4th time)

  TP   TP TPTP   TP TP  TP   TP TPTP   TP
  Q.   Q  E Q.   Q  E   Q.   Q  E Q.   Q.
|---------------------|---------------------|
|---------------------|---------------------|
|---------------------|---------------------|
|---------------------|---------------------|
|-2----3--0-2----5--3-|-2----3--0-0----2----|
|---------------------|---------------------|

Verse Riff: 
(play first line 2x with a slide out on the second time, 
then play the whole thing 2x)

    PM         PM--------|     PM           PM  PM--|
  E E E  E E E E E E E E E   E E E  E E E E E E E E E
|--------------------------|--------------------------|
|--------------------------|--------------------------|
|--------------------------|--------------------------|
|-9---9-10-9-7-------------|-9---9-10-9-7-8---8-------|
|-7---7--8-7-5-2-2-2-2-2-2-|-7---7--8-7-5-6---6-2-2-2-|
|-7-0-7--8-7-5-0-0-0-0-0-0-|-7-0-7--8-7-5-6-0-6-0-0-0-|


    PM         PM--------|     PM           PM  PM--|     PM  PM--|
  E E E  E E E E E E E E E   E E E  E E E E E E E E E   E E E E E E
|--------------------------|--------------------------|-------------|
|--------------------------|--------------------------|-------------|
|--------------------------|--------------------------|-------------|
|-9---9-10-9-7-------------|-9---9-10-9-7-8---8-------|-8---8-------|
|-7---7--8-7-5-2-2-2-2-2-2-|-7---7--8-7-5-6---6-2-2-2-|-6---6-2-2-2-|
|-7-0-7--8-7-5-0-0-0-0-0-0-|-7-0-7--8-7-5-6-0-6-0-0-0-|-6-0-6-0-0-0-|


Break: (play 4x)

  PM------------------------------------------|
  E E E E E E E E E E E E   E E E E E E E E E E E E
|-------------------------|-------------------------|
|-------------------------|-------------------------|
|-------------------------|-------------------------|
|-------------------------|-------------------------|
|-2-2-2-2---------------2-|---2---2-----2-2-2-2-----|
|-0-0-0-0---------------0-|---0---0-----0-0-0-0-----|

Verse again 2x

Chorus 4x

Break 4x

Interlude (clean): (play 4x)

  Gtr II
  E E E E E E E E E E E E   E E E E E E E E E E E E
|-2-2-2-2-2-2-2-2-2-2-2-2-|-3-3-3-3-3-3-5-5-5-5-5-5-|
|-5-5-5-5-5-5-5-5-5-5-5-5-|-5-5-5-5-5-5-5-5-5-5-5-5-|
|-4-4-4-4-4-4-4-4-4-4-4-4-|-4-4-4-4-4-4-4-4-4-4-4-4-|
|-------------------------|-------------------------|
|-------------------------|-------------------------|
|-------------------------|-------------------------|


  E E E E E E E E E E E E   E E E E E E E E E E E E
|-5-5-5-5-5-5-5-5-5-5-5-5-|-x-x-x-x-x-x-x-x-x-x-x-x----|
|-3-3-3-3-3-3-3-3-3-3-3-3-|-3-3-3-1-1-1-0-0-0-0-0-0----|
|-0-0-0-0-0-0-0-0-0-0-0-0-|-0-0-0-0-0-0-0-0-0-0-0-0----|
|-------------------------|----------------------------|
|-------------------------|----------------------------|
|-------------------------|----------------------------|

Interlude part 2: (play 3rd and 4th times)

  Q  Q  E E H.        Q  Q  E E  H.         Q   Q   W           Q   Q   W
|-7-----------------|-7------------------|-10----------------|-10------------|
|----8--7h8p7-------|----8--7h8h10-------|-----10------------|-----10--------|
|-------------------|--------------------|---------12--------|---------12----|
|-------------------|--------------------|-------------------|---------------|
|-------------------|--------------------|-------------------|---------------|
|-------------------|--------------------|-------------------|---------------|

Solo Rhythm (back to distortion): (play 2x before solo, then all during solo)

  Gtr I
  PM--|       PM--|         PM--|          PM--|
  E E E E E E E E E E E E   E E E  E  E  E E E E  E  E  E
|-------------------------|-------------------------------|
|-------------------------|-------------------------------|
|-------9-9-9-------9-9-9-|-------11-11-11-------12-12-12-|
|-------------------------|-------------------------------|
|-------7-7-7-------7-7-7-|--------9--9--9-------10-10-10-|
|-0-0-0-------0-0-0-------|-0-0-0----------0-0-0----------|


  E E E E E E E E E E E E    E  E  E  E  E  E  E  E  E E E E
|-------------------------|-------------------------------------|
|-------------------------|-------------------------------------|
|-9-9-9-9-9-9-9-9-9-9-9-9-|-------------------------------------|
|-7-7-7-7-7-7-7-7-7-7-7-7-|-12-12-12-12-12-12--9--9--9-7-7-7----|
|-5-5-5-5-5-5-5-5-5-5-5-5-|-10-10-10-10-10-10-10-10-10-9-9-9----|
|-5-5-5-5-5-5-5-5-5-5-5-5-|-10-10-10-10-10-10-------------------|

Guitar Solo: (starts during last measure of rhythm on 2nd time)

  Q  Q  Q
|------------|
|------------|
|-------7----|
|-9--7-------|
|------------|
|------------|


                 PM     PM    PM
  W        +Q.   E   Q  E  Q  E  Q  E  Q.
|------------------|----------------------------|
|------------------|------------------10b12r====|
|-9--------(9)-----|-9----11----12--------------|
|----------------9-|----9-----9-----9-----------|
|------------------|----------------------------|
|------------------|----------------------------|


   +W          +E  E  E E   Q.  E E E   H.
|-------------------------|-------------------|
|-(10)--------(10)-8h10p7-|-8---7h8p7---------|
|-------------------------|-------------------|
|-------------------------|-------------9-----|
|-------------------------|-------------------|
|-------------------------|-------------------|


   E  E  E  E  E  E  E  E  E  E   E  E   E E E E E E E  E  E  E  E  E
|-10S12-12-12S10-10-10S12-12-12\-(0)---|---------------------------------|
|-10S12-12-12S10-10-10S12-12-12\-(0)---|---------------------------------|
|--------------------------------------|-4S7-7-7S9-9-9S12-12-12-14-16----|
|--------------------------------------|---------------------------------|
|--------------------------------------|---------------------------------|
|--------------------------------------|---------------------------------|


   W.              H.      H.
|----------------|---------------|
|----------------|---------------|
|-14-------------|---------------|
|-12-------------|-5-------4-----|
|----------------|---------------|
|----------------|---------------|


  E  E E E E E  E E  E  E E  E    H     +Q       E    E  Q.      E
|------------------------------|--------------------------------------|
|------------------------------|-15----(15)b17------------------------|
|--------9---9-11-9-11-12-9S12-|----------------14b16---14b16---12----|
|------9---9-------------------|--------------------------------------|
|-7-10-------------------------|--------------------------------------|
|------------------------------|--------------------------------------|


   E    E  Q    +W           H    +E  E H.
|--------------------------|------------------|
|--------------------------|------------------|
|-14b16---14r--(14)--------|------------------|
|--------------------------|-5----(5)S7-7-----|
|--------------------------|------------------|
|--------------------------|------------------|


   Q       E  E E  E  E E  Q   E  E    E    E  Q    E  E  Q   Q   Q
|-----------------------------------|----------------------------------|
|-----------------------------------|----------------------------------|
|-14pb16r=12-11-9-11-12---11--11-11-|-14b16---14r--14-14-16--17--19----|
|-----------------------------------|----------------------------------|
|-----------------------------------|----------------------------------|
|-----------------------------------|----------------------------------|


   Q   S  S  E  +W            H.         +H.
|--------------------------|---------------------|
|--------------------------|-19b20------(19)r----|
|-19--19p17-14-(14)--------|---------------------|
|--------------------------|---------------------|
|--------------------------|---------------------|
|--------------------------|---------------------|

Outro part 1: (play 2x with Interlude riff)

  E E E E E E E E E E E E   E E E E E E E E E E E E
|-------------------------|----------------------------|
|-------------------------|----------------------------|
|-------------------------|----------------------------|
|-------------------------|----------------------------|
|-2-2-2-2---------------4-|---4---4-----5-5-5-5--------|
|-0-0-0-0---------------2-|---2---2-----3-3-3-3--------|


  E E E E E E E E E E E E   E E E E E E E E E E
|-------------------------|------------------------|
|-------------------------|------------------------|
|-------------------------|------------------------|
|-------------------------|------------------------|
|-4-4-4-4---------------5-|---5---5-----4-4-4-4----|
|-2-2-2-2---------------3-|---3---3-----2-2-2-2----|

Outro part 2:

    PM         PM--------|     PM           PM  PM--|
  E E E  E E E E E E E E E   E E E  E E E E E E E E E
|--------------------------|-----------------------------|
|--------------------------|-----------------------------|
|--------------------------|-----------------------------|
|-9---9-10-9-7-------------|-9---9-10-9-7-8---8----------|
|-7---7--8-7-5-2-2-2-2-2-2-|-7---7--8-7-5-6---6-2-2-2----|
|-7-0-7--8-7-5-0-0-0-0-0-0-|-7-0-7--8-7-5-6-0-6-0-0-0----|


    PM         PM--------|     PM           PM  PM--|
  E E E  E E E E E E E E E   E E E  E E E E E E E E E
|--------------------------|--------------------------|
|--------------------------|--------------------------|
|--------------------------|--------------------------|
|-9---9-10-9-7-------------|-9---9-10-9-7-8---8-------|
|-7---7--8-7-5-2-2-2-2-2-2-|-7---7--8-7-5-6---6-2-2-2-|
|-7-0-7--8-7-5-0-0-0-0-0-0-|-7-0-7--8-7-5-6-0-6-0-0-0-|


    PM  PM--|
  E E E E E E  E  E  E E E E    E  E  E E E E
|----------------------------|------------------|
|----------------------------|------------------|
|-------------10-10-10-------|-10-10-10---------|
|-8---8--------8--8--8-------|--8--8--8---------|
|-6---6-2-2-2--6--6--6-2-2-2-|--6--6--6-2-2-2---|
|-6-0-6-0-0-0--6--6--6-0-0-0-|--6--6--6-0-0-0---|

Outro part 1 again 2x with interlude riff
then keep repeating til fadeout but let the power chords ring
(if you listen to the song you'll know what i mean)

that's it
please rate and comment


Suggest correction
comments
print report bad tab
5 comments total. Showing first comments.
+1 reply
iamdisturbed 10 Jun 28, 2008 01:55 PM

for the chorus verse. there should be 4 for each note. the string # and tuning is correct.

2222 3333 0000 2222 55 33 2222 3333 0000
3333 5555

0 reply
cheez1492 685 Jun 28, 2008 06:55 PM

it says to tremolo pick them, so yeah...

0 reply
liveinthedark 10 Apr 06, 2009 10:14 AM

nice i feel like a loser but i dont know how to tune my guitar down to d other then the low E string any help?

guest
You may want to rate the tab now too:
select rating
Wanna post a correction for this tab? Suggest correction