Oops, an error
Loading. Please wait.

The Air That I Breathe Tab

version 1
version 1

Solo

Whole song

Interactive

10,261 views 9 this week
4 commentsread comments
1 2 3 4 5
accurate
x 5
add to favorites
launch autoscroll
font size
0
reset
how to read this tab
guitar tuner
Tab Pro tools
  • play this tab
  • loop segment
  • change instrument
  • show fretboard
  • metronome
Autoscroll
slow
fast
+/-
esc
set tempo
stop
Contributor
Difficulty
Tabbers playing skills
intermediate
advanced +
All That Remains - The Air That I Breathe

Tabbed by cob666

Beggining solo

W                  
-------|-------|-------|-------|-------|-------|-------|----------------------|
-------|-------|-------|-------|-------|-------|-------|--/14~----------------|
-------|-------|-------|-------|-------|-------|-------|----------------------|
-------|-------|-------|-------|-------|-------|-------|----------------------|
-------|-------|-------|-------|-------|-------|-------|----------------------|
-------|-------|-------|-------|-------|-------|-------|----------------------|


  Q      E.   E   Q     S   E     H.            E   E     
-------------------------------|---------------14--------|
--L----------14--16----16S-17--|--L----------------16b~--|
-------/13---------------------|-------------------------|
-------------------------------|-------------------------|
-------------------------------|-------------------------|
-------------------------------|-------------------------|


  H.           E  S T  T      H.            E   E   
-------------------------|--/19------------21--16--|
--L------------L--L-L-17-|-------------------------|
-------------------------|-------------------------|
-------------------------|-------------------------|
-------------------------|-------------------------|
-------------------------|-------------------------|


  E   E   E    S  S  E    E   E   E     H         E  S  E  S  E   
--L--19--16S--14-17-14S--12--14--16--|--L--------16----14--------|
-------------------------------------|-----------17----16----17--|
-------------------------------------|-----------------------18--|
-------------------------------------|---------------------------|
-------------------------------------|---------------------------|
-------------------------------------|---------------------------|


  S    H         Q.     S      H        H                                 
----<>15b--------L------L-||---L-----------------|-----------|-----------|
------17b--------L------L-||---L-----------------|-----------|-----------|
--------------------------||*--------------------|-----------|-----------|
--------------------------||*--------------------|-----------|-----------|
--------------------------||---------------------|-----------|-----------|
--------------------------||---------------------|-----------|-----------|

Second Solo:
     PH                           
     Q.        E    Q.      S  S  
--<>24br------19b---L------19-21-|
---------------------------------|
---------------------------------|
---------------------------------|
---------------------------------|
---------------------------------|


   S  S  S  S  S  S  S  S  S  S  S  S  S  S  S  S  
--16-21-19-16-19-16-17-16-14-17-16-14-16-12-17-14-|
--------------------------------------------------|
--------------------------------------------------|
--------------------------------------------------|
--------------------------------------------------|
--------------------------------------------------|


   E     S  S  S  S  S  S  E     S  S  S  S  S  S  
--12br--16-14-12-14-12-11-------11----------12----|
--------------------------14br-----14-12-14----14-|
--------------------------------------------------|
--------------------------------------------------|
--------------------------------------------------|
--------------------------------------------------|


   E    S  S  E    S  S  E    S  S  E    S  S  
----------12---------12---------12---------12-|
--14b--12----14b--12----14b--12----14b--12----|
----------------------------------------------|
----------------------------------------------|
----------------------------------------------|
----------------------------------------------|


   Q      E     E   E   E   Q        E   E   E   Q.      E   E   
---------------------------------|------------------------------|
--12b----14br--------------------|------------------------------|
---------------13------13--------|------------------------------|
-------------------16------------|------------------------------|
---------------------------16----|--16--12--14------------------|
---------------------------------|--------------14------14--12--|


   E   E  S  S S  S S  S S  S  S  S  S  S     Q      E   H          S  T  T  
------------------------------------------|---------------------------------|
------------------------------------------|---------14----------------------|
------------------------------------------|--11b--------11b--------13-14-16-|
------------------------------11-14-11-14-|---------------------------------|
--14--12------------9-12-9-12-------------|---------------------------------|
----------9-12-9-12-----------------------|---------------------------------|


   Q     E   Q.      E   E     E   E  H.             
----------------------------|-----------------------|
----------------------------|-----------------------|
--13----14--11------13------|-----11----------------|
------------------------11--|--L------9~------------|
----------------------------|-----------------------|
----------------------------|-----------------------|


   S S  S S  S S  S S  S S S S Q       E  E   H.            
------------------------------------|----------------------|
------------------------------------|----------------------|
------------------------------------|----------------------|
-----9-11-9-------------------------|----------------------|
--12--------12-9-12-9-12-9-7--------|----------------------|
-----------------------------9-7----|--7--9---L------------|


  S S S S S S S S S S S S S S S S    S S S S  E   H         E   
----------------------------------|----7-----12--11b--------L--|
------------------------7-----9---|----------------------------|
------------6-----9---------------|----------------------------|
--6-6-9-6-6---6-6---6-6---6-6---6-|--6---6-6-------------------|
----------------------------------|----------------------------|
----------------------------------|----------------------------|


                               PH        
   S  S S  S  S S  S S  S S    Q.        
--12-11-9----11-9----9------<>17br------|
----------12------12---12-9-------------|
----------------------------------------|
----------------------------------------|
----------------------------------------|
----------------------------------------|


   S  S  S  S  S  S  S  S  S  S S  S S  S  S S    W                         
-----------------------------------------------|-------------------|-------|
-----------------------------------------------|-------------------|-------|
-----------------------------------------------|--6----------------|-------|
--11-13-14-11-------11-------------------------|--6----------------|-------|
--------------12-14----14-12-11-9-11-9---------|--4----------------|-------|
---------------------------------------11-10-9-|-------------------|-------|

Duration Legend
---------------
W - whole
H - half
Q - quarter
E - 8th
S - 16th
T - 32nd
X - 64th
. - note dotted
|-n-|  - n-tuplets


Tablature Legend
----------------
L - tied note
x - dead note
g - grace note
(n) - ghost note
> - accentuded note
NH - natural harmonic
AH - artificial harmonic
TH - tapped harmonic
SH - semi harmonic
PH - pitch harmonic
h - hammer on
p - pull off
b - bend
br - bendRelease
pb - preBend
pbr - preBendRelease
brb - bendReleaseBend
\n/ - tremolo bar dip
\n - tremolo bar dive
-/n - tremolo bar Release up
/n\ - tremolo bar inverted dip
/n - tremolo bar return
-\n - tremolo bar Release down
S - shift slide
s - legato slide
/ -  slide into from below or out of upwards
\ -  slide into from above or out of downwards
~ - vibrato
W - wide vibrato
tr - trill
TP - tremolo picking
T - tapping
S - slap
P - pop
< - fade in
^ - brush up
v - brush down
comments
print report bad tab
4 comments total. Showing first comments. show 1 bad comment
+3 reply
awsomeguitarguy wrote on June 1 2008, 04:29 pm

Sweet tab, this freaking songs lead tone and distortion is amazing, I WANT IT!!1

0 reply
09GUITARLEARNER wrote on August 14 2009, 10:19 pm

\m/

I want to post or [tab]
guest
You may want to rate the tab now too:
select rating
Please do not post tabs as comments. Select "correction" instead!