Oops, an error
Loading. Please wait.

This Darkened Heart Tab

version 3
1,240 views 1 this week
no commentswrite comment
1 2 3 4 5
accurate
x 7
add to favorites
launch autoscroll
font size
0
reset
how to read this tab
guitar tuner
Autoscroll
slow
fast
+/-
esc
set tempo
stop
Help us to improve Ultimate-Guitar.com Take our survey!
×
THIS DARKENED HEART
by All That Remains
(from the 2005 album THIS DARKENED HEART)

Guitar I - (D G C F A D) - 'Mike Martin'
Guitar II - (D G C F A D) - 'Oli Herbert'

Intro
Gtrs I, II 
||--------------------------------||-------------------------------|
||o------------------------------o||-------------------------------|
||--------------------------------||-------------------------------|
||--------------------------------||-----------------------------5-|
||o-----7---6-----10---9-----7h6-o||------5---4---3---4---5---4--5-|
||--0-0---0---0-0----0---0-0------||--0-0---0---0---0---0---0----3-|
PM  - -   -   - -    -   - -          - -   -   -   -   -   - 

|--------------------------------||
|--------------------------------||
|--------------------------------||
|------------------------------2-||
|-----5---4---3---4---5--4/5\4-2-||
|-0-0---0---0---0---0----2/3\2-0-||
PM- -   -   -   -   -
 
Verse
Gtrs I, II
||--------------------------|---------------------------------------||
||--------------------------|---------------------------------------||
||--------------------------|---------------------------------------||
||--------9-8-5-4----4-5-10-|-2-2-2--9-8-5--------------------------||
||-2-2-2--7-6-3-2--2-2-3/8--|-2-2-2--7-6-3--7---5---7---8---5---5h7-||
||-0-0-0--7-6-3-2--0-2-3/8--|-0-0-0--7-6-3----0---0---0---0---0-----||
PM   - -           -            - -           -   -   -   -   -

Pre-Chorus
Gtr I
||----------------------------------------------------------------------||
||o--------------------------------------------------------------------o||
||----------------------------------------------------------------------||
||----------------------------------------------------------------------||
||o-7---6---7-7---6---7-7---6---7-7---6---7-7---6---7---10---9---7---9-o||
||----0---0-----3---3-----3---3-----5---5-----5---7---7----7---7---7----|| 
|PM   -   -     -   -     -   -     -   -     -   -   -    -   -   -
|
|Gtr II
||---------------------------------------------------||
||o-------------------------------------------------o||
||---------------------------------------------------||
||--2-----------5------------------7--------------9--||
||o-2-----------5------------------7--------------9-o||
||--0-----------3------------------5--------------7--||


Chorus
Guitar One
||----------------------------------------------------------------------||
||o--------------------------------------------------------------------o||
||----------------------------------------------------------------------||
||----------------------------------------------------------------------||
||o-7---6---7-7---6---7-7---6---7-7---6---7-7---6---7---10---9---7---9-o||
||----0---0-----3---3-----3---3-----3---3-----5---5---5----7---7---7----|| 
|PM   -   -     -   -     -   -     -   -     -   -   -    -   -   -

Guitar Two
||---------------------------------------------------------------------||
||o-------------------------------------------------------------------o||
||---------------------------------------------------------------------||
||--5---4---5-5---4---5-5---4---5-5---4---5-5---4---5---9---7---6---7--||
||o-------------------------------------------------------------------o||
||----0---0-----0---0-----3---3-----3---3-----5---5---5---7---7---7----|| 
|PM   -   -     -   -     -   -     -   -     -   -   -   -   -   -

Intro
Gtrs I, II 
||--------------------------------||-------------------------------|
||o------------------------------o||-------------------------------|
||--------------------------------||-------------------------------|
||--------------------------------||-----------------------------5-|
||o-----7---6-----10---9-----7h6-o||------5---4---3---4---5---4--5-|
||--0-0---0---0-0----0---0-0------||--0-0---0---0---0---0---0----3-|
PM  - -   -   - -    -   - -          - -   -   -   -   -   - 

|--------------------------------||
|--------------------------------||
|--------------------------------||
|------------------------------2-||
|-----5---4---3---4---5--4/5\4-2-||
|-0-0---0---0---0---0----2/3\2-0-||
PM- -   -   -   -   -
 
Verse
Gtrs I, II
||--------------------------|---------------------------------------||
||--------------------------|---------------------------------------||
||--------------------------|---------------------------------------||
||--------9-8-5-4----4-5-10-|-2-2-2--9-8-5--------------------------||
||-2-2-2--7-6-3-2--2-2-3/8--|-2-2-2--7-6-3--7---5---7---8---5---5h7-||
||-0-0-0--7-6-3-2--0-2-3/8--|-0-0-0--7-6-3----0---0---0---0---0-----||
PM   - -           -            - -           -   -   -   -   -

Pre-Chorus
Gtr I
||----------------------------------------------------------------------||
||o--------------------------------------------------------------------o||
||----------------------------------------------------------------------||
||----------------------------------------------------------------------||
||o-7---6---7-7---6---7-7---6---7-7---6---7-7---6---7---10---9---7---9-o||
||----0---0-----3---3-----3---3-----5---5-----5---7---7----7---7---7----|| 
|PM   -   -     -   -     -   -     -   -     -   -   -    -   -   -
|
|Gtr II
||---------------------------------------------------||
||o-------------------------------------------------o||
||---------------------------------------------------||
||--2-----------5------------------7--------------9--||
||o-2-----------5------------------7--------------9-o||
||--0-----------3------------------5--------------7--||


Chorus
Guitar One
||----------------------------------------------------------------------||
||o--------------------------------------------------------------------o||
||----------------------------------------------------------------------||
||----------------------------------------------------------------------||
||o-7---6---7-7---6---7-7---6---7-7---6---7-7---6---7---10---9---7---9-o||
||----0---0-----3---3-----3---3-----3---3-----5---5---5----7---7---7----|| 
|PM   -   -     -   -     -   -     -   -     -   -   -    -   -   -

Guitar Two
||---------------------------------------------------------------------||
||o-------------------------------------------------------------------o||
||---------------------------------------------------------------------||
||--5---4---5-5---4---5-5---4---5-5---4---5-5---4---5---9---7---6---7--||
||o-------------------------------------------------------------------o||
||----0---0-----0---0-----3---3-----3---3-----5---5---5---7---7---7----|| 
|PM   -   -     -   -     -   -     -   -     -   -   -   -   -   -

Bridge 
Gtrs I, II
||-----------------------------------|-------|--------|
||-----------------------------------|-------|--------|
||-----------------------------------|-------|--------|
||-----------------------------------|-9-8-5-|-4-5-10-|
||-----------------------------------|-7-6-3-|-2-3/8--|
||-00-00-00-00--00-00-00-00-00-00-00-|-7-6-3-|-2-3/8--|
PM -- -- -- --  -- -- -- -- -- -- --


Breakdown
Gtrs I, II
||-----------------------------||
||o---------------------------o||
||-----------------------------||
||-----------------------------||
||o--------2----------------2-o||
||--000000-0--0000000000000-0--||
PM  ------    -------------

Repeat 4 Times 
|---------------------------------------------------------------------|
|---------------------------------------------------------------------|
|---------------------------------------------------------------------|
|---------------------------------------------------------------------|
|--------2----------------2-----------2----------------2--------------|
|-000000-0--0000000000000-0----000000-0--0000000000000-0--3-3-2-2-1-1-| 
PM------    -------------      ------    -------------    - - - - - -

End.
Suggest correction
comments
print report bad tab
guest
You may want to rate the tab now too:
select rating
Please do not post tabs as comments. Select "correction" instead!