Oops, an error
Loading. Please wait.
We have an official Two Weeks tab made by UG professional guitarists. Check out the tab »
×
4,737 views 1 this week
2 commentsread comments
1 2 3 4 5
3 more votes to show rating
add to favorites
×
Save as Personal and add changes to this tab that will be seen only by you. Learn more ›
×
You can save this tab as Personal to edit and correct it or add notes. All changes will be seen only by you. Learn more »
launch autoscroll
font size
0
reset
guitar tuner
backing track
0:00
0:00
edit
Autoscroll
slow
fast
+/-
esc
set tempo
stop
                                  Two Weeks          
                               All That Remains
Bass

Tuning: C# F# B E

      Q    Q    Q    Q       Q    Q    Q    Q       Q    Q    Q    Q     
E ||----------------------|----------------------|----------------------|
B ||----------------------|----------------------|----------------------|
F#||--7-------------------|--5-------------------|--3-------------------|
C#||----------------------|----------------------|----------------------|


  Q    Q    Q    Q                                                             
--------------------|-------|-------|-------|-------|------|-------|-------|
--------------------|-------|-------|-------|-------|------|-------|-------|
--7----5----3----5--|-------|-----|---------|-------|------|-------|-------|
--------------------|-------|-------|-------|-------|------|-------|-------|


  Q    Q    S S E  E  E                                             
-------------------------|-----|-----|-----|-----|-----|-----|-----|
-------------------------|-----|-----|-----|-----|-----|-----|-----|
-------------------------|-----|-----|-----|-----|-----|-----|-----|
------------7-7-7--7--7--|-----|-----|-----|-----|-----|-----|-----|


  Q    Q    S S E  E  E     E  E  E  E  E  E  E  E   
-------------------------|--------------------------|
-------------------------|--------------------------|
----------------------5--|--7--7--7--7--7--7--7--7--|
------------7-7-7--7-----|--------------------------|


  E  E  E  E  S S E  E  E     E  E  E  E  E  E  E  E   
---------------------------|--------------------------|
---------------------------|--------------------------|
--7--7--7--7--7-7-7--7--7--|--5--5--5--5--5--5--5--5--|
---------------------------|--------------------------|


  E  E  E  E  S S E  S S E     Q    E  E  E  E  E  E   
----------------------------|-------------------------|
----------------------------|-------------------------|
--5--5--5--5--5-5-5--5-5-5--|--3----3--3--3--3--3--3--|
----------------------------|-------------------------|


  E  E  E  E  S S E  E  E     E  E  E  E  E  E  E  E   
---------------------------|--------------------------|
---------------------------|--------------------------|
--3--3--3--3--3-3-3--3--3--|--------------------------|
---------------------------|--3--0--0--0--0--0--0--0--|


  E  E  E  E  E  E  E  E     E  E  E  E  E  E  E  E   
--------------------------|--------------------------|
--------------------------|--------------------------|
--------------------------|--7--7--7--7--7--7--7--7--|
--5--5--5--5--7--7--7--7--|--------------------------|


  E  E  E  E  S S E  E  E     E  E  E  E  E  E  E  E   
---------------------------|--------------------------|
---------------------------|--------------------------|
--7--7--7--7--7-7-7--7--7--|--5--5--5--5--5--5--5--5--|
---------------------------|--------------------------|


  E  E  E  E  S S E  S S E     Q    E  E  E  E  E  E   
----------------------------|-------------------------|
----------------------------|-------------------------|
--5--5--5--5--5-5-5--5-5-5--|--3----3--3--3--3--3--3--|
----------------------------|-------------------------|


  E  E  E  E  S S E  E  E     E  E  E  E  E  E  E  E   
---------------------------|--------------------------|
---------------------------|--------------------------|
--3--3--3--3--3-3-3--3--3--|--------------------------|
---------------------------|--3--0--0--0--0--0--0--0--|


  E  E  E  E  E  E  E  E     E  E  E  E  Q    Q       E  S S E  E  S S E  Q     
--------------------------|--------------------|---------------------------|
--------------------------|--------------------|---------------------------|
--------------------------|--------------------|---------------------------|
--5--5--5--5--7--7--7--7--|--0--0--0--0--0-----|-----0-0-0--0--0-0-0--0----|


  E  E  E  E  Q    Q       E  S S E  E  S S E  Q       E  E  E  E  Q    Q     
-----------------------|--------------------------|------------------------|
-----------------------|--------------------------|------------------------|
-----------------------|--------------------------|------------------------|
--2--2--2--2--2--------|----2-2-2--2--2-2-2--2----|--3--3--3--3--3---------|


  E  S S E  E  S S E  Q       E  E  E  E  Q    Q       E  E  E  E  E  E  E  E   
---------------------------|--------------------|--------------------------|
---------------------------|--------------------|--------------------------|
---------------------------|--------------------|--------------2--2--2--2--|
-----3-3-3--3--3-3-3--3----|--0--0--0--0--0-----|-----0--0--0--------------|


  E  E  E  E  Q    Q       E  S S E  E  S S E  Q       E  E  E  E  Q    Q     
----------------------|---------------------------|------------------------|
----------------------|---------------------------|------------------------|
----------------------|---------------------------|------------------------|
--0--0--0--0--0-------|-----0-0-0--0--0-0-0--0----|--2--2--2--2--2---------|


  E  S S E  E  S S E  Q       E  E  E  E  Q    Q     
---------------------------|------------------------|
---------------------------|------------------------|
---------------------------|------------------------|
-----2-2-2--2--2-2-2--2----|--3--3--3--3--3---------|


  E  S S E  E  S S E  Q       E  E  E  E  Q    Q       E  E  E  E  E  E  E  E   
--------------------------|--------------------|--------------------------|
--------------------------|--------------------|--------------------------|
--------------------------|--------------------|--------------2--2--2--2--|
----3-3-3--3--3-3-3--3----|--0--0--0--0--0-----|-----0--0--0--------------|


  W                   H.           E   E     W                 
-------------------|----------------------|-------------------|
-------------------|----------------------|-------------------|
-------------------|--5------------5h--7--|--3----------------|
--0----------------|----------------------|-------------------|


  W                   W                   H.           Q     
-------------------|-------------------|--------------------|
-------------------|-------------------|--------------------|
--L----------------|-------------------|--5------------7----|
-------------------|--0----------------|--------------------|


  W                   H        H           W                 
-------------------|--------------------|-------------------|
-------------------|--------------------|-------------------|
--3----------------|--L--------5--------|--7----------------|
-------------------|--------------------|-------------------|


  H.           Q       W                   Q    Q    Q    Q     
--------------------|-------------------|----------------------|
--------------------|-------------------|----------------------|
--5------------5----|--3----------------|--L-------------------|
--------------------|-------------------|-------0----2----3----|


  W                   H.           Q       W                 
-------------------|--------------------|-------------------|
-------------------|--------------------|-------------------|
-------------------|--------------------|-------------------|
--0----------------|--2------------0----|--3----------------|


  H        H           E  E  E  E  E  E  E  E     E  E  E  E  S S E  E  E   
--------------------|--------------------------|---------------------------|
--------------------|--------------------------|---------------------------|
-----------5--------|--7--7--7--7--7--7--7--7--|--7--7--7--7--7-7-7--7--7--|
--3-----------------|--------------------------|---------------------------|


  E  E  E  E  E  E  E  E     E  E  E  E  S S E  S S E   
--------------------------|----------------------------|
--------------------------|----------------------------|
--5--5--5--5--5--5--5--5--|--5--5--5--5--5-5-5--5-5-5--|
--------------------------|----------------------------|


  Q    E  E  E  E  E  E     E  E  E  E  S S E  E  E   
-------------------------|---------------------------|
-------------------------|---------------------------|
--3----3--3--3--3--3--3--|--3--3--3--3--3-3-3--3--3--|
-------------------------|---------------------------|


  E  E  E  E  E  E  E  E     E  E  E  E  E  E  E  E   
--------------------------|--------------------------|
--------------------------|--------------------------|
--------------------------|--------------------------|
--3--0--0--0--0--0--0--0--|--0--0--0--0--7--7--7--7--|


  E  E  E  E  E  E  E  E     E  E  E  E  S S E  E  E   
--------------------------|---------------------------|
--------------------------|---------------------------|
--7--7--7--7--7--7--7--7--|--7--7--7--7--7-7-7--7--7--|
--------------------------|---------------------------|


  E  E  E  E  E  E  E  E     E  E  E  E  S S E  S S E   
--------------------------|----------------------------|
--------------------------|----------------------------|
--5--5--5--5--5--5--5--5--|--5--5--5--5--5-5-5--5-5-5--|
--------------------------|----------------------------|


  Q    E  E  E  E  E  E     E  E  E  E  S S E  E  E   
-------------------------|---------------------------|
-------------------------|---------------------------|
--3----3--3--3--3--3--3--|--3--3--3--3--3-3-3--3--3--|
-------------------------|---------------------------|


  E  E  E  E  E  E  E  E     E  E  E  E  E  E  E  E     E  E  E  E  Q    Q     
--------------------------|--------------------------|---------------------|
--------------------------|--------------------------|---------------------|
--------------------------|--------------------------|---------------------|
--3--0--0--0--0--0--0--0--|--0--0--0--0--7--7--7--7--|--0--0--0--0--0------|


  E  S S E  E  S S E  Q       E  E  E  E  Q    Q     
---------------------------|------------------------|
---------------------------|------------------------|
---------------------------|------------------------|
-----0-0-0--0--0-0-0--0----|--2--2--2--2--2---------|


  E  S S E  E  S S E  Q       E  E  E  E  Q    Q     
---------------------------|------------------------|
---------------------------|------------------------|
---------------------------|------------------------|
-----2-2-2--2--2-2-2--2----|--3--3--3--3--3---------|


  E  S S E  E  S S E  Q       E  E  E  E  Q    Q       E  E  E  E  E  E  E  E   
---------------------------|--------------------|--------------------------|
---------------------------|--------------------|--------------------------|
---------------------------|--------------------|--------------2--2--2--2--|
-----3-3-3--3--3-3-3--3----|--0--0--0--0--0-----|-----0--0--0--------------|


  E  E  E  E  Q    Q       E  S S E  E  S S E  Q       E  E  E  E  Q    Q     
----------------------|---------------------------|------------------------|
----------------------|---------------------------|------------------------|
----------------------|---------------------------|------------------------|
--0--0--0--0--0-------|-----0-0-0--0--0-0-0--0----|--2--2--2--2--2---------|


  E  S S E  E  S S E  Q       E  E  E  E  Q    Q     
---------------------------|------------------------|
---------------------------|------------------------|
---------------------------|------------------------|
-----2-2-2--2--2-2-2--2----|--3--3--3--3--3---------|


  E  S S E  E  S S E  Q       E  E  E  E  Q    Q       E  E  E  E  E  E  E  E   
---------------------------|--------------------|--------------------------|
---------------------------|--------------------|--------------------------|
---------------------------|--------------------|--------------2--2--2--2--|
-----3-3-3--3--3-3-3--3----|--0--0--0--0--0-----|-----0--0--0--------------|


  W                   H.           E   E     W                 
-------------------|----------------------|-------------------|
-------------------|----------------------|-------------------|
-------------------|--5------------5h--7--|--3----------------|
--0----------------|----------------------|-------------------|


  W                   W                   H.           Q     
-------------------|-------------------|--------------------|
-------------------|-------------------|--------------------|
--L----------------|-------------------|--5------------7----|
-------------------|--0----------------|--------------------|


  W                   H        H           W                 
-------------------|--------------------|-------------------|
-------------------|--------------------|-------------------|
--3----------------|--L--------5--------|--7----------------|
-------------------|--------------------|-------------------|


  H.           Q       W                   Q    Q    Q    Q     
--------------------|-------------------|----------------------|
--------------------|-------------------|----------------------|
--5------------5----|--3----------------|--L-------------------|
--------------------|-------------------|-------0----2----3----|


  W                   H.           Q       W                 
-------------------|--------------------|-------------------|
-------------------|--------------------|-------------------|
-------------------|--------------------|-------------------|
--0----------------|--2------------0----|--3----------------|


  Q    Q    Q    Q       E  E  E  E  E  E  E  E     E  E  E  E  E  E  E  E   
---------------------|--------------------------|--------------------------|
---------------------|--------------------------|--------------------------|
--7----5-------------|--------------------------|--5--5--5--5--5--5--5--5--|
------------7---3----|--0--0--0--0--0--0--0--0--|--------------------------|


  E  E  E  E  E  E  E  E     E  E  E  E  E  E  E  E   
--------------------------|--------------------------|
--------------------------|--------------------4--4--|
--3--3--3--3--3--3--3--3--|--2--2--3--3--5--5--------|
--------------------------|--------------------------|


  E  E  E  E  E  E  E  E     E  E  E  E  E  E  E  E   
--------------------------|--------------------------|
--------------------------|--------------------------|
--------------------------|--------------------------|
--0--0--0--0--0--0--0--0--|--2--2--2--2--2--2--2--2--|


  E  E  E  E  E  E  E  E     Q    Q    Q    Q       E  E  E  E  E  E  E  E   
--------------------------|---------------------|--------------------------|
--------------------------|---------------------|--------------------------|
--------------------------|--7----5-------------|--------------------------|
--3--3--3--3--3--3--3--3--|-----------7----0----|--0--0--0--0--0--0--0--0--|


  E  E  E  E  E  E  E  E     E  E  E  E  E  E  E  E   
--------------------------|--------------------------|
--------------------------|--------------------------|
--5--5--5--5--5--5--5--5--|--3--3--3--3--3--3--3--3--|
--------------------------|--------------------------|


  E  E  E  E  E  E  E  E     E  E  E  E  E  E  E  E   
--------------------------|--------------------------|
--------------------4--4--|--------------------------|
--2--2--3--3--5--5--------|--------------------------|
--------------------------|--0--0--0--0--0--0--0--0--|


  E  E  E  E  E  E  E  E     E  E  E  E  E  E  E  E     Q    Q    Q    Q     
--------------------------|--------------------------|---------------------|
--------------------------|--------------------------|---------------------|
--------------------------|--------------------------|--7----5-------------|
--2--2--2--2--2--2--2--2--|--3--3--3--3--3--3--3--3--|-----------7----0----|


  H        Q    Q       H        Q    Q       H        H         
---------------------|---------------------|--------------------|
---------------------|-----------5----4----|--------------------|
-----------2----3----|--5------------------|--7--------5--------|
--0------------------|---------------------|--------------------|


  H        H           H        Q    Q       H        Q    Q     
--------------------|---------------------|---------------------|
--------------------|---------------------|-----------5----4----|
--------------------|-----------2----3----|--5------------------|
--3--------5--------|--0------------------|---------------------|


  H        H           H        H           H        Q    Q     
--------------------|--------------------|---------------------|
--------------------|--------------------|---------------------|
--7--------5--------|--------------------|-----------2----3----|
--------------------|--3--------5--------|--0------------------|


  H        Q    Q       H        H           H        H         
---------------------|--------------------|--------------------|
-----------5----4----|--------------------|--------------------|
--5------------------|--7--------5--------|--------------------|
---------------------|--------------------|--3--------5--------|


  H        Q    Q       H        Q    Q       H        H         
---------------------|---------------------|--------------------|
---------------------|-----------5----4----|--------------------|
-----------2----3----|--5------------------|--7--------5--------|
--0------------------|---------------------|--------------------|


  H        H           Q    Q    Q    Q       W                 
--------------------|----------------------|-------------------|
--------------------|----------------------|-------------------|
--------------------|----------------------|-------------------|
--3--------5--------|--0---------0---------|--0----------------|


  H.           Q       W                   W                 
--------------------|-------------------|-------------------|
--------------------|-------------------|-------------------|
--5------------7----|--3----------------|--L----------------|
--------------------|-------------------|-------------------|


  W                   H.           Q       W                 
-------------------|--------------------|-------------------|
-------------------|--------------------|-------------------|
-------------------|--5------------7----|--3----------------|
--0----------------|--------------------|-------------------|


  H        H           W                   H.           Q     
--------------------|-------------------|--------------------|
--------------------|-------------------|--------------------|
--L--------5--------|--7----------------|--5------------5----|
--------------------|-------------------|--------------------|


  W                   Q    Q    Q    Q       W                 
-------------------|----------------------|-------------------|
-------------------|----------------------|-------------------|
--3----------------|--L-------------------|-------------------|
-------------------|-------0----2----3----|--0----------------|


  H.           Q       W                   H        H         
--------------------|-------------------|--------------------|
--------------------|-------------------|--------------------|
--------------------|-------------------|-----------5--------|
--2------------0----|--3----------------|--L-----------------|


  E  E  E  E  E  E  E  E     E  E  E  E  S S E  E  E   
--------------------------|---------------------------|
--------------------------|---------------------------|
--7--7--7--7--7--7--7--7--|--7--7--7--7--7-7-7--7--7--|
--------------------------|---------------------------|


  E  E  E  E  E  E  E  E     E  E  E  E  S S E  S S E   
--------------------------|----------------------------|
--------------------------|----------------------------|
--5--5--5--5--5--5--5--5--|--5--5--5--5--5-5-5--5-5-5--|
--------------------------|----------------------------|


  Q    E  E  E  E  E  E     E  E  E  E  S S E  E  E   
-------------------------|---------------------------|
-------------------------|---------------------------|
--3----3--3--3--3--3--3--|--3--3--3--3--3-3-3--3--3--|
-------------------------|---------------------------|


  E  E  E  E  E  E  E  E     E  E  E  E  E  E  E  E   
--------------------------|--------------------------|
--------------------------|--------------------------|
--------------------------|--------------------------|
--3--0--0--0--0--0--0--0--|--0--0--0--0--7--7--7--7--|


  E  E  E  E  E  E  E  E     E  E  E  E  S S E  E  E   
--------------------------|---------------------------|
--------------------------|---------------------------|
--7--7--7--7--7--7--7--7--|--7--7--7--7--7-7-7--7--7--|
--------------------------|---------------------------|


  E  E  E  E  E  E  E  E     E  E  E  E  S S E  S S E   
--------------------------|----------------------------|
--------------------------|----------------------------|
--5--5--5--5--5--5--5--5--|--5--5--5--5--5-5-5--5-5-5--|
--------------------------|----------------------------|


  Q    E  E  E  E  E  E     E  E  E  E  S S E  E  E   
-------------------------|---------------------------|
-------------------------|---------------------------|
--3----3--3--3--3--3--3--|--3--3--3--3--3-3-3--3--3--|
-------------------------|---------------------------|


  E  E  E  E  E  E  E  E     E  E  E  E  E  E  E  E     E  E  E  E  Q    Q     
--------------------------|--------------------------|---------------------|
--------------------------|--------------------------|---------------------|
--------------------------|--------------------------|---------------------|
--3--0--0--0--0--0--0--0--|--0--0--0--0--7--7--7--7--|--0--0--0--0--0------|


  E  S S E  E  S S E  Q       E  E  E  E  Q    Q     
---------------------------|------------------------|
---------------------------|------------------------|
---------------------------|------------------------|
-----0-0-0--0--0-0-0--0----|--2--2--2--2--2---------|


  E  S S E  E  S S E  Q       E  E  E  E  Q    Q     
---------------------------|------------------------|
---------------------------|------------------------|
---------------------------|------------------------|
-----2-2-2--2--2-2-2--2----|--3--3--3--3--3---------|


  E  S S E  E  S S E  Q       E  E  E  E  Q    Q       E  E  E  E  E  E  E  E   
---------------------------|--------------------|--------------------------|
---------------------------|--------------------|--------------------------|
---------------------------|--------------------|--------------2--2--2--2--|
-----3-3-3--3--3-3-3--3----|--0--0--0--0--0-----|-----0--0--0--------------|


-----|-----|-----|-----|-----|-----|-----|-----|-----|-----|-----|-----|
-----|-----|-----|-----|-----|-----|-----|-----|-----|-----|-----|-----|
-----|-----|-----|-----|-----|-----|-----|-----|-----|-----|-----|-----|
-----|-----|-----|-----|-----|-----|-----|-----|-----|-----|-----|-----|


  W                   H.           E   E     W                 
-------------------|----------------------|-------------------|
-------------------|----------------------|-------------------|
-------------------|--5------------5h--7--|--3----------------|
--0----------------|----------------------|-------------------|


  W                   W                   H.           Q     
-------------------|-------------------|--------------------|
-------------------|-------------------|--------------------|
--L----------------|-------------------|--5------------7----|
-------------------|--0----------------|--------------------|


  W                   H        H           W                 
-------------------|--------------------|-------------------|
-------------------|--------------------|-------------------|
--3----------------|--L--------5--------|--7----------------|
-------------------|--------------------|-------------------|


  H.           Q       W                   Q    Q    Q    Q     
--------------------|-------------------|----------------------|
--------------------|-------------------|----------------------|
--5------------5----|--3----------------|--L-------------------|
--------------------|-------------------|-------0----2----3----|


  W                   H.           Q       W                 
-------------------|--------------------|-------------------|
-------------------|--------------------|-------------------|
-------------------|--------------------|-------------------|
--0----------------|--2------------0----|--3----------------|


  H        H           W                   H.           E   E   
--------------------|-------------------|----------------------|
--------------------|-------------------|----------------------|
-----------5--------|-------------------|--5------------5h--7--|
--3-----------------|--0----------------|----------------------|


  W                   W                   W                 
-------------------|-------------------|-------------------|
-------------------|-------------------|-------------------|
--3----------------|--L----------------|-------------------|
-------------------|-------------------|--0----------------|


  H.           Q       W                   H        H         
--------------------|-------------------|--------------------|
--------------------|-------------------|--------------------|
--5------------7----|--3----------------|--L--------5--------|
--------------------|-------------------|--------------------|


  W                   H.           Q       W                 
-------------------|--------------------|-------------------|
-------------------|--------------------|-------------------|
--7----------------|--5------------5----|--3----------------|
-------------------|--------------------|-------------------|


  Q    Q    Q    Q       W                   H.           Q     
----------------------|-------------------|--------------------|
----------------------|-------------------|--------------------|
--L-------------------|-------------------|--------------------|
-------0----2----3----|--0----------------|--2------------0----|


  W                   Q    Q    Q    Q       Q    Q     Q    Q     
-------------------|----------------------|-----------------------|
-------------------|----------------------|-----------------------|
-------------------|--7----5--------------|------------10----9----|
--3----------------|------------7----3----|--7----8---------------|


  H        Q    Q                         
----------------------|-----|-----|-----||
----------------------|-----|-----|-----||
--7--------L----L\----|-----|-----|-----||
----------------------|-----|-----|-----||




Duration Legend
---------------
W - whole
H - half
Q - quarter
E - 8th
S - 16th
T - 32nd
X - 64th
. - note dotted
|-n-|  - n-tuplets


Tablature Legend
----------------
L - tied note
x - dead note
g - grace note
(n) - ghost note
> - accentuded note
NH - natural harmonic
AH - artificial harmonic
TH - tapped harmonic
SH - semi harmonic
PH - pitch harmonic
h - hammer on
p - pull off
b - bend
br - bendRelease
pb - preBend
pbr - preBendRelease
brb - bendReleaseBend
\n/ - tremolo bar dip
\n - tremolo bar dive
-/n - tremolo bar Release up
/n\ - tremolo bar inverted dip
/n - tremolo bar return
-\n - tremolo bar Release down
S - shift slide
s - legato slide
/ -  slide into from below or out of upwards
\ -  slide into from above or out of downwards
~ - vibrato
W - wide vibrato
tr - trill
TP - tremolo picking
T - tapping
S - slap
P - pop
< - fade in
^ - brush up
v - brush down

            
            
Suggest correction
Creating personal tab
Creating personal tab
You can edit any tab online and save it as your Personal.

You can edit, replace or remove any tab part or add personal notes – all changes will be seen only by you.

Personal tabs can be accessed anytime from any device, even offline.
Learn more »
Give kudos to tab author, rate the tab!
1 2 3 4 5
comments
print report bad tab
2 comments total.
0 reply
airsoftjake 10 Oct 23, 2009 08:50 PM

this tab may be right but i refuse to look at a tab thats longer than it has to be. also the tuning you have down id drop C# not D. please fix yourself

0 reply
Trivium_Child 90 Apr 18, 2010 08:04 AM

It's good I guess but it would be better if you labeled "Verse" or the times.

guest
You may want to rate the tab now too:
select rating
Wanna post a correction for this tab? Suggest correction