Oops, an error
Loading. Please wait.

Two Weeks Tab

version 4
version 4
3,124 views 1 this week
no commentswrite comment
1 2 3 4 5
please rate
add to favorites
launch autoscroll
font size
0
reset
how to read this tab
guitar tuner
Tab Pro tools
  • play this tab
  • loop segment
  • change instrument
  • show fretboard
  • metronome
Autoscroll
slow
fast
+/-
esc
set tempo
stop
Contributor
Difficulty
advanced
Two Weeks 
All That Remains 
Overcome 

Here's what I think Oli Herbert plays on that song. 


Tuning: C# F# B E G# C#
Q=224
4/4

Intro 

    PM--|           PM--|           PM--|
|-----------------------------------------------------------------|
|-----------------------------------------------------------------|
|---------------------------------------------------5-------------|
|-2-------5-4-2-4---------7-5-4-5---------9-7-5-7-9---9-7-9-7-5---|
|-----------------5---------------7-----------------------------9-|
|---0-0-0-----------0-0-0-----------0-0-0-------------------------|

Main Riff
       PM   PM|  PM---|   PM----|  PM 
||------------------|-----------------|
||------------------|-----------------|
||------------------|-----------------|
||------------------|-----------------|
||--5s7---7-----7---|---7---------7---|
||------0---0-0---0-|-0---0-0-000---0-|

     PM  PM|    PM---|  PM----|  PM 
|-----------------|-----------------|
|-----------------|-----------------|
|-----------------|-----------------|
|-----------------|-----------------|
|-7s9---9-----9---|---9-------------|
|-----0---0-0---0-|-0---0-0-000-000-|

      PM    PM|    PM---|   PM----|   PM 
|--------------------|-------------------|
|--------------------|-------------------|
|--------------------|-------------------|
|--------------------|-------------------|
|-9s10---10-----10---|---10---------10---|
|------0----0-0----0-|-0----0-0-000----0-|

      PM   PM|   PM---|  PM|
|------------------|------------------||
|------------------|------------------||
|------------------|------------------||
|------------------|---------9-7-5----||
|-10s7---7-----7---|---7-----------9--||
|------0---0-0---0-|-0---0-0----------||

Chorus 

  PM-------------------------------------|
||-----------------------------------------|
||-----------------------------------------|
||-9-9-----9-9-12-12-11-11-------9-9-------|
||-----9-9-----------------12-12-----12-12-|
||-----------------------------------------|
||-----------------------------------------|

  PM--------------------------------------|
|-----------------------------------------||
|-----------------------------------------||
|-9-9-----9-9-----------------------------||
|-----9-9-----9-9-12-12-------12-12-------||   x4
|-----------------------10-10-------10-10-||
|-----------------------------------------||

Interlude 
      PM--|           PM--|           PM--|
||------------------------------------------------------------------|
||------------------------------------------------------------------|
||o---------------------------------------------------5-------------|
||o-2-------5-4-2-4---------7-5-4-5---------9-7-5-7-9---9-7-9-7-5---|
||------------------5---------------7-----------------------------9-|
||----0-0-0-----------0-0-0-----------0-0-0-------------------------|

    PM--|   PM  PM     PM--|   PM  PM     PM--|    PM  PM
|-----------------|------------------|--------------------|--------------||
|-----------------|------------------|--------------------|--------------||
|-----------------|------------------|--------------------|-------------o||
|-----------------|------------------|--------------------|-9--7--4--7--o||
|-7-------7---7---|--9-------9---9---|-10-------10---10---|-7--5--2--5---||
|---0-0-0---0---0-|----0-0-0---0---0-|----0-0-0----0----0-|--------------||

Solo
|--------------------------------------------14s15-|
|-----------------------------------13----17-------|
|--------------------11s12----12-16----14----------|
|-----------10----14-------14----------------------|
|-----10-14----12----------------------------------|
|--12----------------------------------------------|

|-------------------------|-15----19----17-----------|
|-17----17----19----------|----15----15----15-19b20r-|
|----16----16----16-19-16-|--------------------------|
|-------------------------|--------------------------|
|-------------------------|--------------------------|
|-------------------------|--------------------------|

|--------------------------------------------14s15-|
|-----------------------------------13----17-------|
|--------------------11s12----12-16----14----------|
|-----------10----14-------14----------------------|
|-----10-14----12----------------------------------|
|--12----------------------------------------------|

|-------------------------|-15----19----17----20b22-|
|-17----17----19----------|----15----15----15-------|
|----16----16----16-19-16-|-------------------------|
|-------------------------|-------------------------|
|-------------------------|-------------------------|
|-------------------------|-------------------------|

||-15p14----------14-19p14----------14-|-17p12----------12-15p12----17p14----|
||-------17----17----------17----17----|-------15----15----------15-------17-|
||o---------16----------------16-------|----------14-------------------------|
||o------------------------------------|-------------------------------------|
||-------------------------------------|-------------------------------------|
||-------------------------------------|-------------------------------------|

                                                                    ~~
|-19p15----------15-17p15----------15-|-19p15----20p15----19p15----17----||
|-------17----17----------17----17----|-------17-------17-------17-------||
|----------16----------------16-------|---------------------------------o||
|-------------------------------------|---------------------------------o||
|-------------------------------------|----------------------------------||
|-------------------------------------|----------------------------------||

|-------------------------------|
|----------------12h13p12-------|
|-11h12p11----------------12-11-|
|----------14-12----------------|
|-------------------------------|
|-------------------------------|

|----------------------------------12h14b15r14------------~~~~---~~~~--|
|-------------------------------15-------------15s17-----~~---~~~~~~---|
|-14b16~==16r14p12h14s19~~---14---------------------16p15p14s12-14b16~-|
|-------------------------16-----------------------------~~~~~~~~------|
|--------------------------------------------~--~~~~~~~~~~~~~~~---~----|
|-----------------------------------------------------~---~~~~~~~------|

|---------------------------------14-15-17-|
|------------------------------15----------|
|-16-12-11-12~--------12-14s16-------------|
|---------------12h14----------------------|
|------------------------------------------|
|------------------------------------------|

|----------14-15-17----------------|
|-17b19--------------17b19r-15tr17-|
|----------------------------------|
|----------------------------------|
|----------------------------------|
|----------------------------------|

|-------------------------------------------------------------------------|
|----------------------------------------------------------------15-17-19-|
|----------------------------------------------14-16-17-14-16-17----------|
|----------------------------12-14-16-14-16-17----------------------------|
|----------12-14-15-12-14-15----------------------------------------------|
|-12-14-15----------------------------------------------------------------|

|-12----12-14p12----15p12----17p12----|-/19---20-17tr19---|
|----12----------12-------12-------12-|-------------------|
|-------------------------------------|-------------------|
|-------------------------------------|-------------------|
|-------------------------------------|-------------------|
|-------------------------------------|-------------------|

|-19----------------------|-17-----------------------|
|-------17----20----17----|--------15----19----15----|
|----16----16----16----16-|-----14----14----14----14-|
|-------------------------|--------------------------|
|-------------------------|--------------------------|
|-------------------------|--------------------------|

|-15----12----14----------|----------12-------14s15~~-|
|-------------------15----|-------13----15------------|
|----12----12----12----12-|----12----------14---------|
|-------------------------|-14------------------------|
|-------------------------|---------------------------|
|-------------------------|---------------------------|

Verse & Chorus 

Outro 
|-------------|------------|----------|------*|
|-------------|------------|----------|------*|
|-------------|------------|----------|------*|
|-4--5--4--7--|-9\---------|----------|------*|
|-2--3--2--5--|-7----------|----------|------*|
|-------------|------------|----------|------*|

comments
We did not receive enough feedback on this tab! Please rate:
print report bad tab
1 2 3 4 5
I want to post or [tab]
guest
You may want to rate the tab now too:
select rating
Please do not post tabs as comments. Select "correction" instead!