Oops, an error
Loading. Please wait.

Undone Tab

version 1
version 1

Solo

Whole song

Interactive

2,822 views 3 this week
no commentswrite comment
1 2 3 4 5
accurate
x 2
add to favorites
launch autoscroll
font size
0
reset
how to read this tab
guitar tuner
Tab Pro tools
  • play this tab
  • loop segment
  • change instrument
  • show fretboard
  • metronome
Autoscroll
slow
fast
+/-
esc
set tempo
stop
Contributor
-------------------------------------------------------------------------------
                             Undone- All That Remains
-------------------------------------------------------------------------------
Tabbed by: cleptobismal
Email: cleptobismal@hotmail.com

Tuning: D, G, C, F, A, D

This is my first tab, my computer can't run guitar pro so I had to learn by
ear, and this will be helpful for those who like me do not have guitar pro
(or power tab.)  No one tabbed a good solo so I'll make an attempt at it.
NOTE: the timing for the notes is very weird, it might be wrong but the way
I play it sounds pretty good.

1. V~                  V~                  PH~
[---------------7-------------------------------]
[--8-----7--10-----10--7-----7--8--10p8p7-------]
[-----7-------------------7-----------------9~--]
[-----------------------------------------------]
[-----------------------------------------------]
[-----------------------------------------------]

this hammer-on/pull-off section isn't entirely right, but it fits about the
same in the solo and follows the same scale (it sounds okay.)

                                                         V~
[-----------------------------------------------------------]
[-----------------------------------------------------------]
[----9--11--11h12p11p9h11p9------9------------9-------------]
[--9-------------------------12-----12p10h12-----12p10p9h10~]
[-----------------------------------------------------------]
[-----------------------------------------------------------]

[---------------------------------------]
[---------------------------------------]
[---------------------------------------]
[-------------------7-----7--9--7--9--10]
[--7--9--10--9--10----10----------------]
[---------------------------------------]


                                                      V~
[-------------------------------------------------10------]
[--------------------10--8--7--12--10--8--10--12------12~-]
[7--9--11--12--11--9--------------------------------------]
[---------------------------------------------------------]
[---------------------------------------------------------]
[---------------------------------------------------------]


                                                                V~
[----------------------------------19------------------17--19--20~-]
[------17--19--20--19--17--19--20----------17--19--20--------------]
[--16----------------------------------20--------------------------]
[------------------------------------------------------------------]
[------------------------------------------------------------------]
[------------------------------------------------------------------]

[-------------15--20--15-------]
[---------17--------------17---]
[------17--------------------17]
[---17-------------------------]
[15----------------------------]
[------------------------------]


(use your right hand to tap the 22nd fret)
                                           V~
[--17h22p17p14h17p14-----14-------------------]
[---------------------15-----15---------------]
[-------------------------------14------------]
[----------------------------------16---------]
[-------------------------------------17---14~]
[---------------------------------------------]

[--------------10h14p10-------]
[-----------12----------12----]
[--------11----------------11-]
[-----12----------------------]
[--14-------------------------]
[-----------------------------]


                                                 V~
[-----10h14s19p14----------------------14h19/22--19~]
[--12-------------15----------------15--------------]
[--------------------16----------16-----------------]
[-----------------------16----16--------------------]
[--------------------------17-----------------------]
[---------------------------------------------------]


                                                                  V~
[--17h19p17p15--17--19------------------------------------------------]
[----------------------20b22~19--15-----------------------------------]
[-----------------------------------16--19b21~-14b16r14~12h14p12--11~~]
[---------------------------------------------------------------------]
[---------------------------------------------------------------------]
[---------------------------------------------------------------------]

[-------------------------------------------------]
[-------------------------------------------------]
[--12----12--14--16h14h12--11----11--12--14p12p11-]
[-----12----------------------12------------------]
[-------------------------------------------------]
[-------------------------------------------------]


[--------------12--15--12--14--15--14--15--17----14--15--17-]
[-----------12--------------------------------17------------]
[--9—11--12-------------------------------------------------]
[-----------------------------------------------------------]
[-----------------------------------------------------------]
[-----------------------------------------------------------]

[--17b19--17b19r17h15--14--12h14p12--14b15r14--]
[----------------------------------------------]
[----------------------------------------------]
[----------------------------------------------]
[----------------------------------------------]
[----------------------------------------------]

[-12-12-12-12-19-12-12-12-12-12-17-12-12-12-12-12-15-12-12-12-14b15r14b15r14]
[---------------------------------------------------------------------------]
[---------------------------------------------------------------------------]
[---------------------------------------------------------------------------]
[---------------------------------------------------------------------------]
[---------------------------------------------------------------------------]

[----------------------------------------------------------]
[----------------------------------------------------------]
[----------------------------------------------------------]
[--------------------------------------------------7-0-0-0-]
[----------------------------------7-0-0-0-5-0-0-0---------]
[--5-0-0-0-3-0-0-0-7-0-0-0-5-0-0-0-------------------------]

[-----------------------]
[------------12~~---12~~]
[--0-0-0--14b16--14b16~~]
[-----------------------]
[-----------------------]
[-----------------------]

end~

| /  slide up
| \  slide down
| h  hammer-on
| p  pull-off
| ~  vibrato
| +  harmonic
| x  Mute note
  b  Bend
  r  Release
===============================================================================
comments
We did not receive enough feedback on this tab! Please rate:
print report bad tab
1 2 3 4 5
I want to post or [tab]
guest
You may want to rate the tab now too:
select rating
Please do not post tabs as comments. Select "correction" instead!