Oops, an error
Loading. Please wait.

Vicious Betrayal Tab

version 1
version 1

Whole song

Interactive

5,344 views 3 this week
6 commentsread comments
1 2 3 4 5
accurate
x 9
add to favorites
launch autoscroll
font size
0
reset
how to read this tab
guitar tuner
Tab Pro tools
  • play this tab
  • loop segment
  • change instrument
  • show fretboard
  • metronome
Autoscroll
slow
fast
+/-
esc
set tempo
stop
Contributor
Band- All That Remains
Song- Vicious Betrayal

Tuning D-G-C-F-A-D

Riff1

0:00 (3x)
|------------------------------------------------------------|
|------------------------------------------------------------|
|-------------------------------------------------------2----|
|-5----4----5---5----3----5---5----4----5---------2-3-5---5--|
|-3----2----3---3----1----3---3----2----3---2-3-5------------|
|---00---00---0---00---00---0---00---00---0------------------|
    ..   ..   .   ..   ..   .   ..   ..   .


|------------------------------------------------------------|
|------------------------------------------------------------|Gtr.1+2
|------------------------------------------------------------|
|-8----7----8---8----6----8---8----7----8---8-7-5------------|
|---55---55---5---55---55---5---55---55---5-------8-7-5------|
|-------------------------------------------------------8-7--|
    ..   ..   .   ..   ..   .   ..   ..   .

Riff2(a)

0:27 (2x)
|----------------------------------------------------------------|
|----------------------------------------------------------------|Gtr.
|----------------------------------------------------------------|1+2
|----------------------------------------------------------------|
|----------------10-9-7---9-7-5-----------------10-9-7---12-10-9-|
|-000-8-00-7/3-0--------0--------000-8-00-7/3-0--------0---------|
  ...   ..     .        .        ...   ..     .        .

Riff2(b) (2x) Gtr.2 plays Riff2(b) over 2(a)

|-----------------------------------------------------------------|
|----------------------------------------------------------------|Gtr.2
|-----------------------------------------------------------------|
|------------------9-7-5---7-5-4-------------------9-7-5---10-9-7-|
|-----------------------------------------------------------------|
|-000-12-00-10/7-0-------0--------000-12-00-10/7-0-------0--------|
  ...    ..      .       .        ...    ..      .       .

Riff3(a)

0:46  (2x)
|-----------------------------|----------------------|
|-----------------------------|----------------------|Gtr.
|-5-5--5----------7-7--7--9-9-|----------------------|1+2
|-5-5--5--2-2--2--7-7--7--9-9-|----------------------|
|-3-3--3--2-2--2--5-5--5--7-7-|-3p2-0h2--------------|
|---------0-0--0--------------|----------------------|

Riff1 – (2x)

Riff2(a) + Riff2(b) – (2x)

Riff3(a)

1:22  (2x)
|-------------------------------|----------------------|
|-------------------------------|----------------------|Gtr.
|-5-5--5----------7-7--7--9-9---|----------------------|1+2
|-5-5--5--2-2--2--7-7--7--9-9---|----------------------|
|-3-3--3--2-2--2--5-5--5--7-7---|---3p2-0h2------------|
|---------0-0--0----------------|----------------------|

Riff3(b) – (2x)  Gtr.1 plays Riff3(b) over 3(a) (Gtr.2)

|-------------------------------|----------------------|
|-------------------------------|----------------------|Gtr.1
|-9-9--9--9-9--9-11-11-11-12-12-|----------------------|
|-x-x--x--x-x--x--x-x--x---x--x-|----------------------|
|-7-7--7--7-7--7--9-9--9--10-10-|---3p2-0h2------------|
|-------------------------------|----------------------|

Riff4

1:41 (2x)
|-------------------------------------------------------------|
|-------------------------------------------------------------|Gtr.1+2
|---------------------------------------------9-9-9--7-8-9----|
|-----------------5-5-5--5-5------------------x-x-x--x-x-x----|
|-2--2-2-2-2-2-2--3-3-3--2-2--2--2-2-2-2-2-2--7-7-7--5-6-7----|
|-0--0-0-0-0-0-0--------------0--0-0-0-0-0-0------------------|
     . . . . . .                 . . . . . .
|-------------------------------------------------------------|
|-------------------------------------------------------------|Gtr.1
|-------------------------------5-----------7-----------------|
|-----------------5-5-5--5-5----5-----------7-----------------|
|-2--2-2-2-2-2-2--3-3-3--2-2----3-----------5-----------------|
|-0--0-0-0-0-0-0----------------------------------------------|
     . . . . . .
|-------------------------------------------------------------|
|--------------------------------------3------------7-5-(5)---|Gtr.2
|-----------------------------------5----5------7-------------|
|-----------------5-5-5--4-4------5---5-------7---7-----------|
|-2--2-2-2-2-2-2--3-3-3--2-2----3-----------5-----------------|
|-0--0-0-0-0-0-0----------------------------------------------|
  .  . . . . . .

|-------------------|
|-------------------|
|-------------------|
|-9-9-9-7--4-5------|
|-7-7-7-5--2-3------|
|-------------------|

Solo 1 (Herbert)

Rhythm under solo

2:00 – (4x)
|----------------------------------------|
|----------------------------------------|
|-5-5--5----------7-7--7--9-9------------|
|-5-5--5--2-2--2--7-7--7--9-9------------|
|-3-3--3--2-2--2--5-5--5--7-7--2-2-2-2---|
|---------0-0--0---------------0-0-0-0---|
                               . . . .
2:18 - Riff2(a) (Gtr.1+2) (2x)

2:27 – Riff2(b) (Gtr.2), over Riff2(a) (Gtr.1), (2x)

2:37 – Riff3(a) (Gtr.1+2) (2x)

2:46 – Riff3(b) (Gtr.2), over Riff3(a) (Gtr.1), (2x)

2:55 – Riff4 (2x)

3:13
|---------------------------|
|---------------------------|Gtr.1
|---------------------------|
|-9-10-9h10p9---------------|
|-------------12-10-9-7-----|
|---------------------------|


|---------------------------|
|---------------------------|Gtr.2
|-7-9-7h9p7-----------------|
|-----------10-9-7----------|
|------------------10-------|
|---------------------------|

Riff5 – (2x)
|-------------------------------------------------------------|
|-------------------------------------------------------------|Gtr.1
|-------------------------------------------------------------|
|-5-------10p9--7-------10p9--2-------10p9---7---9----10p9----|
|-3-3-3-3-------5-5-5-5-------0-0-0-0------0---0---00---------|
|-------------------------------------------------------------|
    . . .         . . .         . . .      .   .   ..

Riff5 – (2x)
|-------------------------------------------------------------|
|-------------------------------------------------------------|Gtr.2
|---------9p7----------9p7------------------------------------|
|-5------------7--------------2-------10p9---7---9----10p9----|
|-3-3-3-3------5-5-5-5--------0-0-0-0------0---0---00---------|
|-------------------------------------------------------------|
    . . .        . . .          . . .      .   .   ..

Solo 2 (Martin)


Rhythm under solo

|------------------------------|
|------------------------------|
|-5---7------------------------|
|-5---7---7---5----------------|
|-3---5---7---5----------------|
|---------5---3----------------|
comments
print report bad tab
6 comments total. Showing first comments.
+1 reply
tired and lazy6 wrote on November 13 2006, 04:04 pm

Pretty sweet tab i like it....good job!

+1 reply
arcains_valor wrote on December 9 2006, 09:29 pm

I love it! Great job.

0 reply
'StoleN' wrote on April 1 2007, 09:26 pm

no solo? go **** yourself. no im just kidding good tab. but you gadda get the solo... FTW

I want to post or [tab]
guest
You may want to rate the tab now too:
select rating
Please do not post tabs as comments. Select "correction" instead!