Oops, an error
Loading. Please wait.

We Stand Tab

version 1
version 1

Whole song

Interactive

4,740 views 1 this week
5 commentsread comments
1 2 3 4 5
2 more votes to show rating
add to favorites
launch autoscroll
font size
0
reset
how to read this tab
guitar tuner
Autoscroll
slow
fast
+/-
esc
set tempo
stop
Help us to improve Ultimate-Guitar.com Take our survey!
×
Author
Difficulty
Tuning
intermediate
D A D G B E
WE STAND BY ALL THAT REMAINS
 DROP D TUNING

This is an awesum song…but I don’t have all of it tabbed…if u have a part to something I 
get to, please email me so I can update. All I think I am missing is the harmonized 
in the breakdown and the rhythm in the solo

INRRO
|----------------------------------------------------------|
|----------------------------------------------------------|
|-------------------------7--------------------------------|
|-----8-7-----8-7-------87—-----8-7-----7-8-12-10-8-7------|
|-555-----555-----55555-----555-----555---------------10-8-|
|-555-----555-----55555-----555-----555--------------------|
| ***     ***     *****     ***     ***
|
|--------------------------------------------------------------------|
|--------------------------------------------------------------------|
|--------------------------------------------------------------------|
|-------------------------------10-12-----15-14-13-12----------------|
|-555-----555-----55555-----555-------555------------15-13-12--------|
|-555-----555-----55555-----555-------555----------------------------|
  ***     ***     *****     ***       ***
PRE VERSE
|------------------------------------------------|
|------------------------------------------------|
|-------------------------7----------------------|
|-----8-7-----8-7-------87—----8h10----7h8-7-5-2-|
|-555-----555-----55555-----00------00-----5-3-0-|
|-555-----555-----55555-----00------00-----------|
  ***     ***     *****     **      **
VERSE
|---------------------------------------------------------|
|---------------------------------------------------------|
|---------------------------------------------------------|
|---------------------------------------------------------|
|-----7-5h8----5-7-8----7-5h10---7-8-10-----7-5h8---5-7-8-|
|-0000-----000--0-0-0000------000-0-0---0000-----000-0-0--|
| ****     ***  * * ****      *** * *   ****     *** * *
|
|------------------------------------------------------------------|
|------------------------------------------------------------------|
|------------------------------------------------------------------|
|------------------------------------------------------------------|
|-----10-8h12----8-10-12---10-8h13---10-12-13----10-8h12---8-10-12-|
|-0000-------000--0--0—-000-------000—-0--0—0-000—------000-0--0-0-|
  ****       ***  *  *  ***       ***  *  * * ***       *** *  * *
|----------------------|
|----------------------|
|----------------------|
|----------------------|
|-00-3-3h5-1-00-0-0h1--|
|-00—-0---0—-00--0---5-|
  **  *   *  **  *
REPEAT
Second time do
|---------------------------|
|---------------------------|
|---------------------------|
|---------------------------|
|-00-3-3h5-1---1-0----1-0---|
|-00—-0---0—-00----5------5-|
  **  *   *  **
CHORUS play x1

|----------------------------------------|
|----------------------------------------|
|--------7~--------8~--------7~-5--------|
|-----8-7-------8-7-------8-7-----8—-7/8-|
|-5555------5555------5555---------55----|
|-5555------5555------5555---------55----|
  ****      ****      ****         **
VERSE
|---------------------------------------------------------|
|---------------------------------------------------------|
|---------------------------------------------------------|
|---------------------------------------------------------|
|-----7-5h8----5-7-8----7-5h10---7-8-10-----7-5h8---5-7-8-|
|-0000-----000--0-0-0000------000-0-0---0000-----000-0-0--|
| ****     ***  * * ****      *** * *   ****     *** * *
|
|------------------------------------------------------------------|
|------------------------------------------------------------------|
|------------------------------------------------------------------|
|------------------------------------------------------------------|
|-----10-8h12----8-10-12---10-8h13---10-12-13----10-8h12---8-10-12-|
|-0000-------000--0--0—-000-------000—-0--0—0-000—------000-0--0-0-|
  ****       ***  *  *  ***       ***  *  * * ***       *** *  * *
|----------------------|
|----------------------|
|----------------------|
|----------------------|
|-00-3-3h5-1-00-0-0h1--|
|-00—-0---0—-00--0---5-|
  **  *   *  **  *
REPEAT
Second time do
|---------------------------|
|---------------------------|
|---------------------------|
|---------------------------|
|-00-3-3h5-1---1-0----1-0---|
|-00—-0---0—-00----5------5-|
  **  *   *  **
CHORUS play x2

|----------------------------------------|
|----------------------------------------|
|--------7~--------8~--------7~-5--------|
|-----8-7-------8-7-------8-7-----8—-7/8-|
|-5555------5555------5555---------55----|
|-5555------5555------5555---------55----|
  ****      ****      ****         **
BREAKDOWN this is the worst part of this tab… so yea and I don’t have this harmonized…I 
bothered figuring it out but it shouldn’t be to hard if you can play this song

|-------------------------------------------10-13--|
|----------------------------------10-11-13--------|
|--------------------------9-10-12-----------------|
|--------------------------------------------------|
|-00-8787-00-10810-00-8787-------------------------|
|-00------00-------00------------------------------|
  **      **       **
REPEAT

|------------------------------------------10-13--|
|---------------------------------10-11-13--------|
|-------------------------9-10-12-----------------|
|----8787----757----8787--------------------------|
|-00------00-----00-------------------------------|
|-00------00-----00-------------------------------|
  **      **     **
REPEAT but instead of acending, do this

|-----------------------------5--------|
|-----------------5-------5-6---6-8~---|
|-------------5-7---7-5-7--------------|
|-------5-7-8--------------------------|whammy bar thing
|-5-7-8--------------------------------|
|--------------------------------------|
  * * * * * * * * * * * *

SOLO I tried my pretty hard on this, but ill update if I get something better, the solo 
in the key of D minor, so the notes should be somewhere in there
|---------------17---12-13-13-13-----------------------------------|
|---------15----------------------------------------------10111213-|
|-12-14-15----------------------------------------10111213---------|
|----------------------------------------10111213------------------|
|--------------------------------10111213--------------------------|
|------------------------------------------------------------------|

|-1011121312111-151210151210151210151210-------------------------|
|---------------------------------------151210151210151210151210-|
|----------------------------------------------------------------|
|----------------------------------------------------------------|
|----------------------------------------------------------------|
|----------------------------------------------------------------|

|--------------------------------------------------------21--|b
|------------------------------------------------------------|
|------------------------------------------14b~--------------|
|-12~-17b---12121212-14141414-151515151515----15p14(14)------|
|--------17~-------------------------------------------------|
|------------------------------------------------------------|

|-------------10-131313------------------------------------------|
|----------------------101110111310111011131011101113------------|
|-------10-12----------------------------------------91091012910-|
|-10-12----------------------------------------------------------|
|----------------------------------------------------------------|
|----------------------------------------------------------------|
  ** ** ** **
|--------------------------------------------------------|
|--------------------------------------------------------|
|-10910129109101212b-10101010-12121212-14141414-15151515-|
|--------------------------------------------------------|
|--------------------------------------------------------|
|--------------------------------------------------------|

|----------------------------1817161518171615-----------------|
|--------------------------------------------1817161518171615-|
|-1919191919191919-17171717~----------------------------------|
|-------------------------------------------------------------|
|-------------------------------------------------------------|
|-------------------------------------------------------------|


|---------------------------------------------------------------|
|---------------------------------------------------------------|
|-1415141517141514151714--------------------------------15-17---|
|-----------------------1415141517141514151714-----15-17--------|
|---------------------------------------------15-17-------------|
|---------------------------------------------------------------|


|-------------------------------------------------------------|
|-15151515-17-15151515-18-15151515-17-15151515-20-15151515-18-|
|-------------------------------------------------------------|
|-------------------------------------------------------------|
|-------------------------------------------------------------|
|-------------------------------------------------------------|

|----------------------20-17~--------17*(not sure)-------|
|-15151515-17-15151515-----------------------------------|
|----------------------------17~-15b--------15-17-19-----|
|----------------------------------------17----------17~-|
|--------------------------------------------------------|
|--------------------------------------------------------|

BREAKDOWN
|-------------------------------------------10-13--|
|----------------------------------10-11-13--------|
|--------------------------9-10-12-----------------|
|--------------------------------------------------|
|-00-8787-00-10810-00-8787-------------------------|
|-00------00-------00------------------------------|
  **      **       **
REPEAT

|------------------------------------------10-13--|
|---------------------------------10-11-13--------|
|-------------------------9-10-12-----------------|
|----8787----757----8787--------------------------|
|-00------00-----00-------------------------------|
|-00------00-----00-------------------------------|
  **      **     **
CHORUS play x2

|-------------------------------------------|
|-------------------------------------------|
|--------7~--------8~--------7~-5-----------|
|-----8-7-------8-7-------8-7-----8—-7/8-5~-|
|-5555------5555------5555---------55----5~-|
|-5555------5555------5555---------55----5~-|
  ****      ****      ****         **
Well that’s it, o0o and in the breakdown the rhythm does triplets, I am too lazy to 
it but when I find better fits for the tab closer to the song…ill include the breakdown…

Thanks for looking I hope this gave everyone a better idea of how the song goes, because 
are only 2 tabs for it. Plz rate and comment

Suggestions? Email me at barajova@yahoo.com
Suggest correction
Give kudos to tab author, rate the tab!
1 2 3 4 5
comments
print report bad tab
5 comments total. Showing first comments.
0 reply
whitestkid u no 10 Jul 18, 2007 07:30 PM

the first part of this tab is near perfect but the last part could use some help, good job though

0 reply
whitestkid u no 10 Jul 18, 2007 07:52 PM

i ment to say some parts need help, some dont. I didnt mean the first part was good and the last part was bad.

i need to start listening to what im saying, or els im going to sound like an idiot

0 reply
sc_stanger 20 Sep 02, 2007 11:48 PM

ummm too late hahaha

guest
You may want to rate the tab now too:
select rating
Wanna post a correction for this tab? Suggest correction