Oops, an error
Loading. Please wait.

We Stand Tab

version 3
version 3

Whole song

Interactive

7,350 views 3 this week
1 commentread comment
1 2 3 4 5
excellent!
x 3
add to favorites
launch autoscroll
font size
0
reset
how to read this tab
guitar tuner
Tab Pro tools
  • play this tab
  • loop segment
  • change instrument
  • show fretboard
  • metronome
×
Best way to learn
"We Stand"
Autoscroll
slow
fast
+/-
esc
set tempo
stop
Contributor
Difficulty
Tuning
advanced
D G C F A D
Song: We Stand by All That Remains
Tuning: D Standard (one step down)

. = mute

Guitar 1 - Intro
----------------------------------------------------------------|
----------------------------------------------------------------|
------------------------------9-----------------9---------------|
-----10-9-----10-9-------10-9-------10-9---10-9---12-10-9-------|
-000------000------00000--------000------0----------------12-10-|
----------------------------------------------------------------|
 ...      ...      .....        ...      .

------------------------------------------------------------|
------------------------------------------------------------|
------------------------------9-----------------------------|
-----10-9-----10-9-------10-9-----9-10-12---7-9-10----------|
-000------000------00000--------0---------0---------12-10-9-|
----------------------------------------------------10-8--7-|
 ...      ...      .....        .         .

Guitar 2 - Intro (also join in on the muted open strings)
---------------------------------------------------------------|
---------------------------------------------------------------|
---------------------------------------------------------------|
-----------------------------------------------7-10-9-7--------|
------------------------------------------7-10----------10-8-7-|
---------------------------------------------------------------|

------------------------------------------------------------|
------------------------------------------------------------|
------------------------------------------------------------|
--------------------------------------7h9--------7----------|
----------------------------------7-7-----7-7-10----12-10-9-|
----------------------------------------------------10-8--7-|

[Verse Part 1]

Guitar 1 Repeat intro x 1

Guitar 2
-------------------------------------------------------|
-------------------------------------------------------|
---------------------------5---------------5p4---------|
-----7-5-----7-5-------7-5-------7-5---5-7-----7-5-----|
-000-----000-----00000-------000-----0-------------8-7-|
-------------------------------------------------------|
 ...     ...     .....       ...     .

-------------------------------------------------------|
-------------------------------------------------------|
---------------------------5---------------------------|
-----7-5-----7-5-------7-5-------7h9--------7----------|
-000-----000-----00000-------0-7-----0-7-10----12-10-9-|
-----------------------------------------------10-8--7-|
 ...     ...     .....

[Verse Pt.2]

Guitar 1
---------------------------------------|
---------------------------------------|
---------------------------------------|
----------9----7-9----------10--7-9-10-|
------9p7---10----------9p7------------|
-0000------0-------0000--------0-------|
 ....      .       ....        .

---------------------------------------|
---------------------------------------|
---------------------------------------|
----------9----7-9---------------------|
------9p7---10--------3-5p3----2-2h3p2-|
-0000------0-------00-------0-0--------| all x 2
 ....      .       ..       . .          The very last part is
                                         slightly different 2nd
                                         time.

Guitar 2
-----------------------------------|
-----------------------------------|
---------------------------2-----2-|
------4p2-5-2-4-5------4p2---4-5---|
-----------------------------------|
-0000----0--------0000------0------|
 ....    .        ....      .

--------------------------------------|
--------------------------------------|
--------------------------------------|
------4p2-5-2-4-5---------------------|
---------------------3-5p3----2-2h3p2-|
-0000------0------00-------0-0--------| x 2
 ....      .      ..       . .

[Chorus]

Guitar 1
------------------------------------------------------------|
------------------------------------------------------------|
-------------9~--------------10~--------------9~--7---4-4/5-|
---------9p7-------------9p7--------------9p7-----5---2-2/3-|
-000-0-0---------000-0-0----------000-0-0-------------------|
------------------------------------------------------------| x 1
 ... . .         ... . .          ... . .

Guitar 2
-----------------                        -----------|
-----------------                        -----------|
---------2~------                        -----------|
---------2~------                        -5---3-3-2-|
-000-0-0-0~------ x 3 in time with above -5---3-3-2-|
-----------------                        -3---1-1-0-|
 ... . .


Verse 2 The same.

Pre-chorus break play the Intro part x2

Chorus again


[Interlude]

Guitar 2
---------------------------------------------------------------------------|
---------------------------------------------------------------------------|
---------------------------------------------------------------------------|
-------------------------------------------------------------------------9-|
-----10-9-10-7-----10-9-10-7-12-10-12-9-----10-9-10-7-----9p7-9-10-9p7-9---|
-000-----------000----------------------000-----------000------------------|
 ...           ...                      ...           ...
x2

-------------------------------------------------------------------------|
-------------------------------------------------------------------------|
-------------------9-7-9----7---7---------------------------7---------13-|
-----10-9-10-7-----------10---9---9-----10-9-10-7-----9p7-9---12p9-12----|
-000-----------000------------------000-----------000--------------------|
-------------------------------------------------------------------------|x2
 ...           ...                  ...           ... ^^^^^^^^^^^^^^^^^^^
                                                      pm 2nd time through

Guitar 1 join with:
--------------------------|
--------------------------|
------------------------9-|
---------------10-9h7-9---|
------12p10-12------------|
-(000)--------------------| x 2 at the end of G2, you'll hear it.

Then
--------------------------------------------------------------------------|
-----------------------------------------------------------------------12-|
-----9-7-9------------------------------9-7-9----------------10-9----9----|
-----------10-----10p9-10-7-9p7-9-8-----------10-----12p9-12------12------|
-000----------000-------------------000----------000----------------------| x
--------------------------------------------------------------------------|
 ...          ...                   ...          ... ^^^^^^^^^^^^^^^^^^^^
x2

The muted run is different but I couldn't hear it very well, apologies.

I can't tab the solo, so sorry again, I'm not very gd at solos.

After solo:
Guitar 1
--------------------------------------------------------------------------|
--------------------------------------------------------------------------|
------------------------------------------------------------------------9-|
-----9p7-9--------9p7-9----10-9-10-7-----9p7-9-----------------10-9p7-9---|
-----------10-----------10---------------------10-----12h10-12------------|
-000----------000--------------------000----------000---------------------| x
 ...          ...                    ...          ...
x2

-----------------------------------------------------------------------------|
------------------------------------------------------------------------12---|
-----9p7-9-------------------------------9p7-9----------------10-9----9------|
-----------10-----10p9-10-7-9p7-9--------------10-----12p9-12------12--------|
-000----------000-----------------10-000----------000------------------------|
---------------------------------------------------------------------------x-|
 ...          ...                    ...          ... ^^^^^^^^^^^^^^^^^^^^
x2

2nd time instead play:
-----------------|
-----------------|
-----------------|
-----------------|
-----222-555-333-|
-000-------------|
 ... ... ... ...

GUitar 2
---------------------------------------------------------------------------|
---------------------------------------------------------------------------|
---------------------------------------------------------------------------|
-------------------------------------------------------------------------9-|
-----10-9-10-7-----10-9-10-7-12-10-12-9-----10-9-10-7-----9p7-9-10-9p7-9---|
-000-----------000----------------------000-----------000------------------| x2

-------------------------------------------------------------------------|
-------------------------------------------------------------------------|
-------------------9-7-9----7---7---------------------------7---------13-|
-----10-9-10-7-----------10---9---9-----10-9-10-7-----9p7-9---12p9-12----|
-000-----------000------------------000-----------000--------------------|
-------------------------------------------------------------------------| x2
 ...           ...                  ...           ... ^^^^^^^^^^^^^^^^^^

Play same as guitar 1 2nd time round.

Chorus to finish.

Thats everything i could get, is should be right...I hope. :) Comments
and ratings welcome.
comments
We did not receive enough feedback on this tab! Please rate:
print report bad tab
1 2 3 4 5
1 comment total.
0 reply
vexor7 wrote on March 17 2010, 02:25 pm

Even if there isnt a solo this is damn good
besides this solo sounds like a bitch lol
5*

I want to post or [tab]
guest
You may want to rate the tab now too:
select rating
Please do not post tabs as comments. Select "correction" instead!