Oops, an error
Loading. Please wait.

Weak Willed guitar pro

version 3
version 3

Whole song

Interactive

12,788 views 3 this week
5 commentsread comments
1 2 3 4 5
x 16
add to favorites
guitar tuner
Autoscroll
slow
fast
+/-
esc
set tempo
stop
Author
File Format
Filesize
Instruments
.gp4
63 Kb
rhythm_guitars, lead_guitars, basses, percussions
"Weak Willed"
demo version
Play now

or get full version for Free

×
Get full version now!
Learn and play this song
in Tab Pro
Try for free

or get $10 off Welcome Bonus

Get welcome bonus
Get access to Tab Pro version of “Weak Willed”!
Tab Pro is a premium guitar tab service, available on PC, Mac, iOS and Android
TRY FOR FREE
Your download will start in 7 seconds
×
Like this song? We have more! Follow us on Facebook for daily tips, lessons and other guitar-related content.
To download “Weak Willed” Guitar Pro tab click button below
Please note that you must have Guitar Pro software installed on your
computer in order to view this file.
Suggest correction
comments
report bad tab
5 comments total. Showing first comments.
0 reply
Timoros 31 Jun 04, 2007 03:09 AM

The tab is absolutely correct!
Btw I love your side-comments.
ATR rooooocks!

0 reply
vengance302 351 Sep 09, 2007 10:23 AM

Do you think that you could convert this into a powertab?

+1 reply
MastaTheif 242 Jun 13, 2008 03:46 PM

i tabbed the solo as well and here my version exported from doing it in guitar pro so check it out hehe... definately try out cause i know its right........... look at the legend at the bottom for help


|----3---| |---3--| |---3---| |---
E E E E E E E E E E
D||----------------------8--13p--8-----------
A||------------------10-------------10------1
F||--------------10---------------------10---
C||----------10------------------------------
G||--8h--12----------------------------------
D||------------------------------------------


T
|----3---| |---3---| |----3----| |-
E E E E E E E E E E
--13h--17--13--------------13h--17h--20p--17h
---------------13------13--------------------
-------------------14------------------------
---------------------------------------------
---------------------------------------------
---------------------------------------------


|----3---| |----3---| |---3---| |-
E E E E E E E E E E
--15p--13--19p--14s--11--14p--11------11-----
----------------------------------12------12-
---------------------------------------------
---------------------------------------------
---------------------------------------------
---------------------------------------------


|---3---| |---3---| |----3---| |---3
E E E E E E E E E E E
--------------------------11--14h--19--14----
----------------------12-------------------16
--11--------------11-------------------------
------13------13-----------------------------
----------14---------------------------------
---------------------------------------------


|----3---|
E E E H.
------------------------------|
---------------17~------------|
------------------------------|
--16--------------------------|
------18p--14-----------------|
------------------------------|


W
-------------------||
--L----------------||
-------------------||
-------------------||
-------------------||
-------------------||


Duration Legend
---------------
W - whole
H - half
Q - quarter
E - 8th
S - 16th
T - 32nd
X - 64th
. - note dotted
|-n-| - n-tuplets


Tablature Legend
----------------
L - tied note
x - dead note
g - grace note
(n) - ghost note
> - accentuded note
NH - natural harmonic
AH - artificial harmonic
TH - tapped harmonic
SH - semi harmonic
PH - pitch harmonic
h - hammer on
p - pull off
b - bend
br - bendRelease
pb - preBend
pbr - preBendRelease
brb - bendReleaseBend
\n/ - tremolo bar dip
\n - tremolo bar dive
-/n - tremolo bar Release up
/n\ - tremolo bar inverted dip
/n - tremolo bar return
-\n - tremolo bar Release down
S - shift slide
s - legato slide
/ - slide into from below or out of upwards
\ - slide into from above or out of downwards
~ - vibrato
W - wide vibrato
tr - trill
TP - tremolo picking
T - tapping
S - slap
P - pop
< - fade in
^ - brush up
v - brush down

guest
You may want to rate the tab now too:
select rating