Oops, an error
Loading. Please wait.

Whispers I Hear You Tab

version 1
version 1

Whole song

Interactive

27,566 views 9 this week
11 commentsread comments
1 2 3 4 5
accurate
x 14
add to favorites
launch autoscroll
font size
0
reset
how to read this tab
guitar tuner
Autoscroll
slow
fast
+/-
esc
set tempo
stop
Help us to improve Ultimate-Guitar.com Take our survey!
×
Author
Difficulty
Tuning
intermediate
D A D G B E
p= pull off
h= hammer
*= squeal
~= Vibrato
x= muted string
.= palm mute

Intro
e--------------------------------------|
B--------------------------------------|
G-------------8-xxxx--7-xxxx--5--------|  Repeat twice
D-----8-xxxx--x-xxxx--x-xxxx--x-xxxx---|
A-----6-xxxx--6-xxxx--5-xxxx--3-xxxx---|
D-----6-xxxx--------------------xxxx---|

e---------------------------------------|
B---------------------------------------|
G----------------------7/8-xxxx--5-xxxx-| Repeat twice
D-----8-xxxx-8-xxxx----x-x-xxxx--x-xxxx-|
A-----6-xxxx-6-xxxx----5/6-xxxx--3-xxxx-|
E-----6-xxxx-6-xxxx---------------------|

Main riff
e-------------------------------------------------------------------|
B-------------------------------------------------------------------|
G-------------------------------------------------------------------|
D-------------------------------------------------------------------|
A----5-7-8-7-5------10-10p8--8-8p7---5-7-8-7-5--10-10p8p0-8-8p7p0-3-|
D--00-0-0-0-0-----00--0----00-0----00-0-0-0-0-----0--------0--------|
   .. . . . .     ..  .    .. .   ..  . . . .     .        .
Repeatx2

Then
e----------------------------------------------------------|
B----------------------------------------------------------|
G----------------------------------------------------------|
D----------------------------------------------------------|
A----5-7-8-7-5--------------5-7-8-7-5--10-10p8p0-8-8p7p0-3-|
D--00-0-0-0-0---000--000--00-0-0-0-0-----0--------0--------|
   .. . . . .   ...  ...  .. . . . .     .        .
Repeat twice

chorus "Whispers..."
e--------------------------------------|
B--------------------------------------|
G-------------8-xxxx--7-xxxx--5--------|  Repeat twice
D-----8-xxxx--x-xxxx--x-xxxx--x-xxxx---|
A-----6-xxxx--6-xxxx--5-xxxx--3-xxxx---|
D-----6-xxxx--------------------xxxx---|

e---------------------------------------|
B---------------------------------------|
G----------------------7/8-xxxx--5-xxxx-| Repeat twice
D-----8-xxxx-8-xxxx----x-x-xxxx--x-xxxx-|
A-----6-xxxx-6-xxxx----5/6-xxxx--3-xxxx-|
E-----6-xxxx-6-xxxx---------------------|


Then
e----------------------------------------------------------|
B----------------------------------------------------------|  First time
G----------------------------------------------------------|
D----------------------------------------------------------|
A----5-7-8-7-5--------------5-7-8-7-5--10-10p8p0-8-8p7p0-3-|
D--00-0-0-0-0---000--000--00-0-0-0-0-----0--------0--------|
   .. . . . .   ...  ...  .. . . . .     .        .


e---------------------------------------------------------|
B---------------------------------------------------------|   Second time
G---------------------------------------------------------|
D-------------------------------------------------10*~~---|
A----5-7-8-7-5--------------5-7-8-7-5--10-10p8p0----------|
D--00-0-0-0-0---000--000--00-0-0-0-0-----0----------------|
   .. . . . .   ...  ...  .. . . . .     .


And then...
e-------------------------------------------------------------------|
B-------------------------------------------------------------------|
G-------------------------------------------------------------------|
D-------------------------------------------------------------------|
A----5-7-8-7-5------10-10p8--8-8p7---5-7-8-7-5--10-10p8p0-8-8p7p0-3-|
D--00-0-0-0-0-----00--0----00-0----00-0-0-0-0-----0--------0--------|
   .. . . . .     ..  .    .. .   ..  . . . .     .        .
Repeatx2                                                  ^
                                         slide instead of 8 @ end
                                                      second time

Chorus "Whispers"
e--------------------------------------|
B--------------------------------------|
G-------------8-xxxx--7-xxxx--5--------|  Repeat twice
D-----8-xxxx--x-xxxx--x-xxxx--x-xxxx---|
A-----6-xxxx--6-xxxx--5-xxxx--3-xxxx---|
D-----6-xxxx--------------------xxxx---|

e---------------------------------------|
B---------------------------------------|
G----------------------7/8-xxxx--5-xxxx-| Repeat twice
D-----8-xxxx-8-xxxx----x-x-xxxx--x-xxxx-|
A-----6-xxxx-6-xxxx----5/6-xxxx--3-xxxx-|
E-----6-xxxx-6-xxxx---------------------|

Breakdown starts
e-----------------------------------------------------|
B-----------------------------------------------------|
G-----------------------------------------------------|  Repeat twice
D--10------10-----------------10------10--------------|
A--8-------8------------------8-------8-----8-7-5~----|
D--8----88-8---0-0-0---0-0-0--8----88-8---00-0-0------|
        ..     . . .   . . .       ..     .. . .

I don't have the next part yet

Or the Solo
Suggest correction
What's this?
You can suggest a correction to this tab. Community and Mods will review your correction and vote to approve or reject it.
comments
print report bad tab
11 comments total. Showing first comments.
0 reply
killing spree 71 wrote on June 3 2007, 10:33 am

i think this is in drop c

the intro sounds a lil wierd... i think it actually goes like this
d------------------------------------------------- x2
a-------------------------------------------------
f-------------8---8-8-8-8-7---7-7-7-7-5---5-5-5-5-
c-8---8-8-8-8-x---x-x-x-x-x---x-x-x-x-x---x-x-x-x-
g-6---6-6-6-6-6---6-6-6-6-5---5-5-5-5-3---3-3-3-3-
c-6---6-6-6-6-------------------------------------

d------------------------------------------------- x2
a-------------------------------------------------
f-------------------------7/8-8-8-8-8-7---7-7---7-
c-8---8-8-8-8-8---8-8-8-8-x/x-x-x-x-x-x---x-x---x-
g-6---6-6-6-6-6---6-6-6-6-5/6-6-6-6-6-5---5-5---5-
c-6---6-6-6-6-6---6-6-6-6-------------------------

0 reply
killing spree 71 wrote on June 3 2007, 10:41 am

this part sounds kinda wierd too
a...10-10p8p0-8-8p7p0-3-|
d...--0--------0--------|

it sounds like it fits better like this
g...10-108p7-8-8p7\3-|
c...-----------------|

0 reply
acidofhendrix 339 wrote on June 3 2007, 05:46 pm

yeah i can't exactly change it now but that's what i felt was best.

guest
You may want to rate the tab now too:
select rating
Please do not post tabs as comments. Select "correction" instead!