Oops, an error
Loading. Please wait.

Whispers I Hear You Tab

version 2
version 2

Whole song

Interactive

5,479 views 1 this week
5 commentsread comments
1 2 3 4 5
please rate
add to favorites
launch autoscroll
font size
0
reset
how to read this tab
guitar tuner
Autoscroll
slow
fast
+/-
esc
set tempo
stop
Help us to improve Ultimate-Guitar.com Take our survey!
×
Author
1sheldon 202
K so I fixed up the other tab
thanks to these people, oh and def no solo

acidofhendrix
killing spree
tom1181

Intro Clean

E-------------------------------------------------| x2
B-------------------------------------------------|
G-------------8---8-8-8-8-7---7-7-7-7-7---5-5-5-5-|
D-8---8-8-8-8-8---8-8-8-8-7---7-7-7-7-7---5-5-5-5-|
A-8---8-8-8-8-6---6-6-6-6-5---5-5-5-5-5---3-3-3-3-|
D-8---8-8-8-8-------------------------------------|


E-------------------------------------------------| x2
B-------------------------------------------------|
G-------------------------7/8-X-X-X-7---5-5-5-----|
D-8---8-8-8-8-8---8-8-8-8-7/8-X-X-X-7---5-5-5-----|
A-8---8-8-8-8-8---8-8-8-8-5/6-X-X-X-5---5-3-3-----|
D-8---8-8-8-8-8---8-8-8-8-------------------------|

Verse Dist.

E-----------------------------------|
A-----------------------------------|
D-----------------------------------|
G-----------------------------------|
B-------5-7-8-7-5----10-10p8--8-8p7-|
E-----00-0-0-0-0---00-------0-------|
      .. . . . .   ..       .                Do these Two bars twice
E---------------------------------------|
A---------------------------------------|
D---------------------------------------|
G---------------------------------------|
B-------5-7-8-7-5--10-108p7---8-8p7\3---|
E-----00-0-0-0-0------------0-----------|
      .. . . . .            .

E----------------------------------------------------------|
B----------------------------------------------------------|
G----------------------------------------------------------|
D----------------------------------------------------------|Do this Twice
A----5-7-8-7-5--------------5-7-8-7-5--10-10p8--8-8p7\3----|
D--00-0-0-0-0---000--000--00-0-0-0-0----------0------------|
   .. . . . .   ...  ...  .. . . . .          .

Epic Chorus (Same as Intro with Dist. Tho)


E-------------------------------------------------| x2
B-------------------------------------------------|
G-------------8---8-8-8-8-7---7-7-7-7-7---5-5-5-5-|
D-8---8-8-8-8-8---8-8-8-8-7---7-7-7-7-7---5-5-5-5-|
A-8---8-8-8-8-6---6-6-6-6-5---5-5-5-5-5---3-3-3-3-|
D-8---8-8-8-8-------------------------------------|


E-------------------------------------------------| x2
B-------------------------------------------------|
G-------------------------7/8-X-X-X-7---5-5-5-----|
D-8---8-8-8-8-8---8-8-8-8-7/8-X-X-X-7---5-5-5-----|
A-8---8-8-8-8-8---8-8-8-8-5/6-X-X-X-5---5-3-3-----|
D-8---8-8-8-8-8---8-8-8-8-------------------------|

E------------------------------------------------------------|
B------------------------------------------------------------|
G------------------------------------------------------------|
D-------------------------------------------------------10*V-|Do this Twice
A----5-7-8-7-5--------------5-7-8-7-5--10-10p8--8-8p7\3------|
D--00-0-0-0-0---000--000--00-0-0-0-0----------0--------------|
   .. . . . .   ...  ...  .. . . . .          .
E-----------------------------------|
A-----------------------------------|
D-----------------------------------|
G-----------------------------------|
B-------5-7-8-7-5----10-10p8--8-8p7-|
E-----00-0-0-0-0---00-------0-------|
      .. . . . .   ..       .
E----------------------------------------------|
A----------------------------------------------|
D----------------------------------------------|
G----------------------------------------------|
B-------5-7-8-7-5--10-108p7---8-8p7\3---10\----|
E-----00-0-0-0-0------------0-----------10\----|
      .. . . . .            .
(Chorus)
E-------------------------------------------------| x2
B-------------------------------------------------|
G-------------8---8-8-8-8-7---7-7-7-7-7---5-5-5-5-|
D-8---8-8-8-8-8---8-8-8-8-7---7-7-7-7-7---5-5-5-5-|
A-8---8-8-8-8-6---6-6-6-6-5---5-5-5-5-5---3-3-3-3-|
D-8---8-8-8-8-------------------------------------|


E-------------------------------------------------| x2
B-------------------------------------------------|
G-------------------------7/8-X-X-X-7---5-5-5-----|
D-8---8-8-8-8-8---8-8-8-8-7/8-X-X-X-7---5-5-5-----|
A-8---8-8-8-8-8---8-8-8-8-5/6-X-X-X-5---5-3-3-----|
D-8---8-8-8-8-8---8-8-8-8-------------------------|

Break Down
E--------------------------------|
B--------------------------------|
G--------------------------------|
D-8--------8/10------------------|
A-8--------8/10------------------|
D-8----8-8-8/10---000--000-------|
       ..         ...  ...

E----------------------|
B----------------------|
G----------------------|
D-8--------8/10--------|
A-8--------8/10--8-7-5-|
D-8----8-8-8/10--------|
       ..

E------------------------------|
B------------------------------|
G------------------------------|
D------------------------------|
A-------------8-7-5-10-8-7-----|
D-8--8-8-8h10------------------|


Then I don't have the solo
so thats all i got

Legend:

h=Hammer on
p=Pull off
\=Slide
V=Vibrato
*=Pinch harmonic
.=Palm Mute
Suggest correction new What's this?
You can suggest a correction to this tab. Community and Mods will review your correction and vote to approve or reject it.
comments
We did not receive enough feedback on this tab! Please rate:
print report bad tab
1 2 3 4 5
5 comments total. Showing first comments.
0 reply
cheez1492 992 wrote on December 9 2008, 05:31 pm

they don't play in drop d, and the intro isn't just power chords. it's a little more complicated

0 reply
1sheldon 202 wrote on December 9 2008, 06:27 pm

yeah realized that, but best i could come up with

-2 reply
guitar_gringo_ 10 wrote on December 9 2008, 09:57 pm

Think that shlock is good....listen to this girl.....calling her hendrix meets joni mitchell....it's unbelievable..messing with my mind,,,,AHHHHHH. got to hear it to believe it.

http://www.myspace.com/chrissylovingood

http://www.myspace.com/chrissylovingood
http://www.myspace.com/chrissylovingood
http://www.myspace.com/chrissylovingood
http://www.myspace.com/chrissylovingood

guest
You may want to rate the tab now too:
select rating
Please do not post tabs as comments. Select "correction" instead!