Oops, an error
Loading. Please wait.

Whispers I Hear You Tab

version 3
version 3

Whole song

Interactive

18,252 views 1 this week
4 commentsread comments
1 2 3 4 5
excellent!
x 9
add to favorites
launch autoscroll
font size
0
reset
how to read this tab
guitar tuner
Tab Pro tools
  • play this tab
  • loop segment
  • change instrument
  • show fretboard
  • metronome
×
Best way to learn
"Whispers I Hear You"
Autoscroll
slow
fast
+/-
esc
set tempo
stop
Contributor
Difficulty
Tuning
advanced
D G C F A D
THIS IS JUST THE SOLO!!! it f'd up when i submitted it somehow...
anyways this is pretty hard, so if you aren't at least an
intermediate player i wouldnt recommend trying this... there are two
guitars going during this solo, i tabbed the one with the higher notes..

And rate please!...

Legend-
T-tap
p-pull off
~-let ring

Tuning- D standard


|---------------------------------------------------------------------|
|---------------------------------------------------------------------|
|------------------14-12-11---------16-14-12-17-16-14---------16-14-12|
|---------10-12-14---------14-12-10-------------------17-16-14--------|
|10-12-14-------------------------------------------------------------|
|---------------------------------------------------------------------|

|T12-2p3-T12-2p3-T10-2p3-T12-2p3|
|-------------------------------|
|-------------------------------|
|-------------------------------|
|-------------------------------|
|-------------------------------|

|---------------------------------------------------------------------|
|---------------------------------------------------------------------|
|------------------14-12-11---------16-14-12-17-16-14---------16-14-12|
|---------10-12-14---------14-12-10-------------------17-16-14--------|
|10-12-14-------------------------------------------------------------|
|---------------------------------------------------------------------|

|T12-2p3-T12-2p3-T10-2p3-T12-2p3|
|-------------------------------|
|-------------------------------|
|-------------------------------|
|-------------------------------|
|-------------------------------|

|-T15-5P7-T14-5P7-T12-5P7-T-15-5P7-T-14-5P7-T10-5P7-|
|---------------------------------------------------|
|---------------------------------------------------|
|---------------------------------------------------|
|---------------------------------------------------|
|---------------------------------------------------|

|T15-5P7-T14-5P7-T15-5P7-T17-5P7-T-15-5P7-T-14-5P7-T15-5P7-T14-5P7-T12-5P7|
|-------------------------------------------------------------------------|
|-------------------------------------------------------------------------|
|-------------------------------------------------------------------------|
|-------------------------------------------------------------------------|
|-------------------------------------------------------------------------|

|T15-5P7-T14-5P7-T10-5P7-T14-5P7-T14-5P7-T15-5P7-T12-5P7-T12-5P7-T12-5P7--|
|-------------------------------------------------------------------------|
|-------------------------------------------------------------------------|
|-------------------------------------------------------------------------|
|-------------------------------------------------------------------------|
|-------------------------------------------------------------------------|

End On...
|T12~~~|
|------|
|------|
|------|
|------|
|------|
comments
print report bad tab
4 comments total. Showing first comments.
0 reply
surgikal wrote on March 10 2009, 05:35 pm

I only tabbed the solo..for some reason that isnt coming up on the tab..sorry for any confusion

0 reply
surgikal wrote on March 15 2009, 10:43 am, edited on April 19 2016, 11:18 am

and sorry about the little intro speech i gave bieng all f'd up, they cut out some words for some reason and i cant update it...

-1 reply
Rock_Twist92 wrote on September 17 2009, 02:25 pm

i know i havent actually tried this but looks good, so i will give you five stars.

i was listening to the song while i looked at this and seems like it could fit in nice.

I want to post or [tab]
guest
You may want to rate the tab now too:
select rating
Please do not post tabs as comments. Select "correction" instead!